Ramones - Pinhead Chords & Tabs

 

Pinhead Chords & Tabs

Ramones Chords & Tabs

Version: 2 Type: Tab 0 ratings
1 star 2 stars 3 stars 4 stars 5 stars
comments

Pinhead Tab

   
Artist:  The Ramones
Song:  Pinhead
Tabbed by:  Rick  (rickrack97@hotmail.com)
AIM:  rickrack97

Chords:

A5  (577xxx)      C#5  (9-11-11xxx)
B5  (799xxx)
E5  (x799xx)
F#2 (x9-11-11xx)
D5  (x577xx)

Gabba Gabba We Accept You We Accept You One Of Us
Gabba Gabba We Accept You We Accept You One Of Us

Intro: 

E|--------------------------------------------------------------------|
B|--------------------------------------------------------------------|
G|-----------------------9-11----------------------------9-11---------|
D|--9-11-11-11-11-11-11--9-11-9-11--9-11-11-11-11-11-11--9-11--9-11---|
A|--9-11-11-11-11-11-11--7--9-9-11--9-11-11-11-11-11-11--7--9--9-11---|
E|--7--9--9--9--9--9--9-------7--9--7--9--9--9--9--9--9--------7--9---|

Verse:
[ Tab from: http://www.guitartabs.cc/tabs/r/ramones/pinhead_tab_ver_2.html ]
E|--------------------------------|--------------------------------|
B|--------------------------------|--------------------------------|
G|--------------------------7---9-|-9-9-9-9-9-9-9-9-9-9-9-9-9-9-9-9|
D|--7\9-9-9-9-9-9---7---9---7---9-|-9-9-9-9-9-9-9-9-9-9-9-9-9-9-9-9|
A|--7\9-9-9-9-9-9---7---9---5---7-|-7-7-7-7-7-7-7-7-7-7-7-7-7-7-7-7|
E|--5\7-7-7-7-7-7---5---7---------|--------------------------------|

Interlude:

E|-----------------------------------------------------------------|
B|-----------------------------------------------------------------|
G|--------------7-------------11-----------------------------------|
D|--9-9-9-9-9-9-7-7-7-7-7-7-7-11-----------------------------------|
A|--9-9-9-9-9-9-5-7-7-7-7-7-7--9-----------------------------------|
E|--7-7-7-7-7-7---5-5-5-5-5-5--------------------------------------|

Thats it.  Later.
Comments