Ramones - Oh Oh I Love Her So Chords & Tabs

 

Oh Oh I Love Her So Chords & Tabs

Ramones Chords & Tabs

Version: 2 Type: Tab 0 ratings
1 star 2 stars 3 stars 4 stars 5 stars
comments

Oh Oh I Love Her So Tab

Ok This is a great song by One of the greatest punk bands ever.....
This Tab is 100% Correct,and great to sing to yur ladies,Keep the memory of jOEY rAmone alive!!!,rock on

 Intro/riff 1

 --------------------------------|
 --------------------------------|
 --------------------------------|
 7777777-4444444-7777777-4444444-|
 7777777-4444444-7777777-4444444-|
 5555555-2222222-5555555-2222222-|

 riff 2

 --------------------------------|
 --------------------------------|
 7777777-9999999-7777777-9999999-|
 7777777-9999999-7777777-9999999-|
 5555555-7777777-5555555-7777777-|
 --------------------------------|

 part before intro

 -------------------------------|
 -------------------------------|
 -------------------------------|
 -7777777-4444444---------------|
 -7777777-4444444---------------|
 -5555555-2222222---------------|

 Chorus
 -------------------------------|
 -------------------------------|
 ---------777-9-99--------------|
 77-7-7-7-777-9-99--------------|
 77-7-7-7-555-7-77--------------|
 55-5-5-5-----------------------|
[ Tab from: http://www.guitartabs.cc/tabs/r/ramones/oh_oh_i_love_her_so_tab_ver_2.html ]
 little thing in chorus

 -------------------------------|
 -------------------------------|
 -----777-----------------------|
 -777-777-7777777---------------|
 -777-555-7777777---------------|
 -555-----5555555---------------|

 riff 3

 --------------------------------------------------------------------|
 --------------------------------------------------------------------|
 -7777777---------7777777-------77-99--------------------------------|
 -7777777-7777777-7777777-99999-77-99--------------------------------|
 -5555555-7777777-5555555-99999-55-77--------------------------------|
 ---------5555555---------77777--------------------------------------|

 Order:
 Intro-1x
 riff 1-1x
 riff 2-1x
 riff 1-1x
 riff 2-1x
 part before intro-1x
 chorus-3x
 little thing-1x
 chorus-3x
 little thing-1x
 riff 3-1x
 riff 1-1x
 riff 2-1x
 riff 1-1x
 riff 2-1x
 part before intro-1x
 chorus-3x
 little thing-1x
 chorus-3x
 little thing-1x
 chorus-3x
 little thing-1x
 chorus-3x
 little thing-1x

 Well that is the 100% correct tab of "oh oh i love her so"
 Love ronny K.
Comments