Ramones - Lets Dance Chords & Tabs

 

Lets Dance Chords & Tabs

Ramones Chords & Tabs

Version: 1 Type: Tab 0 ratings
1 star 2 stars 3 stars 4 stars 5 stars
comments

Lets Dance Tab

Ramones
Album: Ramones
Let's Dance
Tabbed by Green Clash

I saw the tab for this song and... didn't really no what's going on
there. So, here's my idea of what the song is supposed to be played
like. I'm very sure this is right. Also, play the chord I tell you
to play until it's time to change.
[ Tab from: http://www.guitartabs.cc/tabs/r/ramones/lets_dance_tab.html ]
Verse
e|------------------------------|
B|------------------------------|
G|----5--12--7--5--7--5--12-----|
D|-5--5--12--7--5--7--5--12-----|
A|-5--3--10--5--3--5--3--10-----|
E|-3----------------------------|

Interlude
e|------------------------------------|
B|------------------------------------|
G|-12-----7--10--5-----7--5--7--5--12-|
D|-12--9--7--10--5--5--7--5--7--5--12-|
A|-10--9--5---8--3--5--5--3--5--3--10-|
E|-----7------------3-----------------|

Order:
Verse x2
Interlude
Verse x2
Comments