Ramones - Judy Is A Punk Chords & Tabs

 

Judy Is A Punk Chords & Tabs

Ramones Chords & Tabs

Version: 1 Type: Tab 0 ratings
1 star 2 stars 3 stars 4 stars 5 stars
comments

Judy Is A Punk Tab

Ramones
Ramones
Judy Is A Punk

What luck, I just make the tab for fun and look here, no tabs on the site. That is 
Anyway, first official tab and I'm pretty positive that this is all totally right. Played it 
the album and it connects. So, enjoy.

Tuning: Standard
Like any Ramones song, just hack away at the chord until it's time to change.
[ Tab from: http://www.guitartabs.cc/tabs/r/ramones/judy_is_a_punk_tab.html ]
Main Riff (Played on all of the verses)
e|--------------------------------------|
B|--------------------------------------|
G|--8-----------------------------------|
D|--8----8------------------------------|
A|--6----8------------------------------|
E|-------6------------------------------|

Chorus:
    Part I      Part II      Part III
e|-----------|-----------|--------------|
B|-----------|-----------|--------------|
G|-----------|--8--------|--------------|
D|--6----8---|--8----8---|--8-----------|
A|--6----8---|--6----8---|--8-----------|
E|--4----6---|-------6---|--6-----------|


Main Riff
Chorus (Part I) x2
Chorus (Part II) x4
Chorus (Part III)
Main Riff
Chorus (Part I) x2
Chorus (Part II) x8
Chorus (Part III)
Main Riff
Chorus (Part I) x2
Chorus (Part II) x4 (Let last note ring)
Comments