Ramones - Journy To The Center Of The Mind Chords & Tabs

 

Journy To The Center Of The Mind Chords & Tabs

Ramones Chords & Tabs

Version: 1 Type: Tab 0 ratings
1 star 2 stars 3 stars 4 stars 5 stars
comments

Journy To The Center Of The Mind Tab

   
Tuning: Standard (e a d g b e)

[ Tab from: http://www.guitartabs.cc/tabs/r/ramones/journy_to_the_center_of_the_mind_tab.html ]
key ^=bend h=hammer on    /=slide down
[--------------------------------------------------------------------------|
[--------------------------11^-10h12p10------11^-10h12p10------------------|
[--------------------------------------11----------------------------------|
[-9--------12---------------------------------------------12---------------|
[-9---x8---12--x8----------------------------------------------------------|
[-7--------10--------------------------------------------------------------|

[-----------------------------------------------------------10h12-12---------|
[------------------------11^-10h12-10--11^-10h12-10---10h12---------12/11/10-|
[------------------------------------11--------------------------------------|
[4----7-------12-11-10-9---------------------------12------------------------|
[4-x8-7--x8---12-11-10-9-----------------------------------------------------|
[2----5-------10-9--8--7-----------------------------------------------------|
Comments