Ramones - Ignorance Is Bliss Chords & Tabs

 

Ignorance Is Bliss Chords & Tabs

Ramones Chords & Tabs

Version: 1 Type: Tab 0 ratings
1 star 2 stars 3 stars 4 stars 5 stars
comments

Ignorance Is Bliss Tab

any shit  DESTINYPUNK@HOTMAIL.COM

IGNORANCE IS BLISS 

intro

6--0-3-5-6-5-3------------
5---------------7--5--7---
4---------------9--7--9---
3---------------9--7--9---  x6
2-------------------------
1-------------------------

pre chorus

6---------------
5--0--0--0--0---
4--2--2--2--2---
3--2--2--2--2---
2---------------
1---------------

chorus

6--0-3-5-6-5-3------------
5---------------5--7--5---
4---------------7--9--7---  first part
3---------------7--9--7---  x5
2-------------------------
1-------------------------

6--------0-3-5-6-5-3-----------------------
5--3--5---------------5--7--5----3--5--2---
4--5--7---------------7--9--7----5--7--4---
3--5--7---------------7--9--7----5--7--4---  second part
2------------------------------------------
1------------------------------------------
[ Tab from: http://www.guitartabs.cc/tabs/r/ramones/ignorance_is_bliss_tab.html ]
then repeat another verse another pre chorus and then another chorus another
intro but play it x2 and then...

solo

6-------------------------------------------------------------------------------
5-------------------------------------------------------------------------------
4-------------------------------------------------------------------------------
3-------------------------------------------------------------------------------
2--5-5-5-5-5-5-5-5-5-5-5-----------------------------------------5-5-5-5-5-5-5-5
1--5-5-5-5-5-5-5-5-5-5-5--0-0-0-0-0-0-0-0-0-0-0-0-0-0-0-0-0-0-0--5-5-5-5-5-5-5-5

6------------------
5------------------
4------------------
3------------------
2--2-2-2-2-2-2-2---
1--2-2-2-2-2-2-2---

then do the intro another chorus but the second part repeat x2 and the end
of the song its the intro but repeat x2
Comments