Ramones - I Wanna Be Sedated Chords & Tabs

 

I Wanna Be Sedated Chords & Tabs

Ramones Chords & Tabs

Version: 3 Type: Tab 0 ratings
1 star 2 stars 3 stars 4 stars 5 stars
comments

I Wanna Be Sedated Tab

   
-------------------------------------------------------------------------------
		I Wanna Be Sedated - The Ramones
-------------------------------------------------------------------------------

By: Eric pumkinmember2@aol.com
   Eb slide E  E  E  E	E  E  E                 A  A  A  A				
e|--0-------0--0--0--0--0--0--0----|-after------0--0--0--0-|
B|--0-------0--0--0--0--0--0--0----|-repeated---2--2--2--2-|
G|--8-------9--9--9--9--9--9--9----|--4 times---2--2--2--2-|
D|--8-------9--9--9--9--9--9--9----|------------2--2--2--2-|
A|--6-------7--7--7--7--7--7--7----|------------0--0--0--0-|
E|--0-------0--0--0--0--0--0--0----|------------0--0--0--0-|
    repeat 4 times. Last time repeated is when lyrics start

[ Tab from: http://www.guitartabs.cc/tabs/r/ramones/i_wanna_be_sedated_tab_ver_3.html ]
    E  				     E  A    A
e|-0-0-0-0-0-0-0-0-0-0-0-0-0-0-0-0--0--0--0--0
B|-0-0-0-0-0-0-0-0-0-0-0-0-0-0-0-0--2--2--2--2
G|-9-9-9-9-9-9-9-9-9-9-9-9-9-9-9-9--2--2--2--2
D|-9-9-9-9-9-9-9-9-9-9-9-9-9-9-9-9--2--2--2--2
A|-7-7-7-7-7-7-7-7-7-7-7-7-7-7-7-7--0--0--0--0
E|-0-0-0-0-0-0-0-0-0-0-0-0-0-0-0--0--0--0--0-0
		E repeated 16 times

Chorus
     A 4 times  E 4 Times               A     B
e|---0----------0----|------------------0-------0------
B|---2----------0----|------------------2-------0------
G|---2----------1----|repeat 3----------2-------4------
D|---2----------2----|times and then..--2-------4------
A|---0----------2----|------------------0-------2------
E|---0----------0----|------------------0-------0------

And the rest it basically repeats.

the end is the chorus, with a B ring at the end
Comments