Ramones - I Dont Want To Grow Up Chords & Tabs

 

I Dont Want To Grow Up Chords & Tabs

Ramones Chords & Tabs

Version: 1 Type: Bass Tab 0 ratings
1 star 2 stars 3 stars 4 stars 5 stars
comments

I Dont Want To Grow Up Bass Tab

INTRO

G--------------------------|
D-0-0-0-0-0-0-0-0-0--------|
A--------------------------|
E--------------------------|

VERSE1


G---------------------------------|
D---------------------------------|
A-0-0-0-0-0-0-0-0---------0-0-0-0-|  X2
E-----------------0-0-0-0---------|


G---------------------------------|
D---------------------------------|
A-2-2-2-2-------------------------|  X2
E---------2-2-2-2-3-3-3-3-5-5-5-5-|


G---------------------------------|
D---------------------------------|
A-0-0-0-0-0-0-0-0---------0-0-0-0-|  X2
E-----------------0-0-0-0---------|

G---------------------------------|
D---------------------------------|
A-2-2-2-2-------------------------|  X2
E---------2-2-2-2-3-3-3-3-5-5-5-5-|

G---------------------------------|
D---------------------------------|
A-0-0-0-0-0-0-0-0---------0-0-0-0-|  X2
E-----------------0-0-0-0---------|

CHORUS

G-----------------------|
D-----------------------|
A-2-2-2-2---------------|  X6
E---------2-2-2-2-------|

CHORUS ENDING THINGY
[ Tab from: http://www.guitartabs.cc/tabs/r/ramones/i_dont_want_to_grow_up_btab.html ]
G---------------------------|
D---------------------------|
A------------------5-5-5-5--|
E--3-3-3-3-5-5-5-5----------|


SOLO

G---------------------------------|
D---------------------------------|
A-0-0-0-0-0-0-0-0---------0-0-0-0-|  X2
E-----------------0-0-0-0---------|

G---------------------------------|
D---------------------------------|
A-2-2-2-2-------------------------|
E---------2-2-2-2-3-3-3-3-5-5-5-5-|

VERSE2

G---------------------------------|
D---------------------------------|
A-0-0-0-0-0-0-0-0---------0-0-0-0-|  X2
E-----------------0-0-0-0---------|

CHORUS2


G-----------------------|
D-----------------------|
A-2-2-2-2---------------|  X6
E---------2-2-2-2-------|

CHORUS2 ENDING THINGY

G-----------------------|
D-----------------------|
A-----------------------|
E-3-3-3-3-5-5-5-5-------|

VERSE3

G---------------------------------|
D---------------------------------|
A-0-0-0-0-0-0-0-0---------0-0-0-0-|  X2
E-----------------0-0-0-0---------|

CHORUS

G-----------------|
D-----------------|
A-2-2-2-2---------|  X7
E---------2-2-2-2-|

OUTRO

G---------------------------|
D---------------------------|
A-------------------5(HOLD)-|
E-3-3-3-3-5-5-5-5-5---------|
Comments