Ramones - I Dont Wanna Grow Up Chords & Tabs

 

I Dont Wanna Grow Up Chords & Tabs

Ramones Chords & Tabs

Version: 1 Type: Bass Tab 1 rating
1 star 2 stars 3 stars 4 stars 5 stars
comments

I Dont Wanna Grow Up Bass Tab

I Don’t Wanna Grow Up – Ramones
INTROx1				  vERSE1				
					
G---------------------------------|------------------(Twice)--------|
D--0-0-0-0-0-0-0-0-0--------------|---------------------------------|
A---------------------------------|-0-0-0-0-0-0-0-0---------0-0-0-0-|  
E---------------------------------|-----------------0-0-0-0---------|


G-----------------(Twice)---------|-----------(Twice)---------------|
D---------------------------------|---------------------------------|
A-2-2-2-2-------------------------|-0-0-0-0-0-0-0-0---------0-0-0-0-|
E---------2-2-2-2-3-3-3-3-5-5-5-5-|-----------------0-0-0-0---------|

G-----------------(Twice)---------|-----------(Twice)---------------|
D---------------------------------|---------------------------------|
A-2-2-2-2-------------------------|-0-0-0-0-0-0-0-0---------0-0-0-0-|
E---------2-2-2-2-3-3-3-3-5-5-5-5-|-----------------0-0-0-0---------|

CHORUS                       CHORUS ENDING

G-------------(Six Times)-|---------------------------|
D-------------------------|---------------------------|
A-2-2-2-2-----------------|------------------5-5-5-5--|
E---------2-2-2-2---------|--3-3-3-3-5-5-5-5----------|



GUITAR SOLO
[ Tab from: http://www.guitartabs.cc/tabs/r/ramones/i_dont_wanna_grow_up_btab.html ]
G-------------(Twice)-------------|------------------(Twice)--------|
D---------------------------------|---------------------------------|
A-0-0-0-0-0-0-0-0---------0-0-0-0-|-2-2-2-2-------------------------|
E-----------------0-0-0-0---------|--------2-2-2-2-3-3-3-3-5-5-5-5--|

VERSE2

G-------------(Twice)-------------|------------------(Twice)--------|
D---------------------------------|---------------------------------|
A-0-0-0-0-0-0-0-0---------0-0-0-0-|-2-2-2-2-------------------------|  X2
E-----------------0-0-0-0---------|---------2-2-2-2-3-3-3-3-5-5-5-5-|

CHORUS2                    CHORUS2 ENDING


G-------------(Twice)---|-------------(Twice)---|
D-----------------------|-----------------------|
A-2-2-2-2---------------|-----------------------|  X6
E---------2-2-2-2-------|-3-3-3-3-5-5-5-5-------|


VERSE3

G---------------------------------|
D---------------------------------|
A-0-0-0-0-0-0-0-0---------0-0-0-0-|  X2
E-----------------0-0-0-0---------|

CHORUS

G-----------------|
D-----------------|
A-2-2-2-2---------|  X7
E---------2-2-2-2-|

OUTRO

G---------------------------|
D---------------------------|
A-------------------5(HOLD)-|
E-3-3-3-3-5-5-5-5-5---------|
Comments