Ramones - I Believe In Miracles Chords & Tabs

 

I Believe In Miracles Chords & Tabs

Ramones Chords & Tabs

Version: 2 Type: Tab 0 ratings
1 star 2 stars 3 stars 4 stars 5 stars
comments

I Believe In Miracles Tab

Artist - Ramones
Song - I Believe in Miracles



Intro and Verses:                            3rd time
e|-----------------------|---------------------------------------------------|
B|-----------------------|---------------------------------------------------|
G|-----------------99----|-----------------------------99--------------------|
D|-9999--44--5555--99-x2-|-9999--44--555555--77777777--99--------------------|
A|-9999--44--5555--77----|-9999--44--555555--77777777--77--------------------|
E|-7777--22--3333--------|-7777--22--333333--55555555------------------------|

Chorus:
e|------------------------------------|--------------------------------------|
B|------------------------------------|--------------------------------------|
G|------------------------------------|--------------------------------------|
D|-9999999--7777777--5555555----------|-9999999--7777777--555555555----------|
A|-9999999--7777777--5555555----------|-9999999--7777777--555555555----------|
E|-7777777--5555555--3333333--3-2-3-5-|-7777777--5555555--333333333----------|
[ Tab from: http://www.guitartabs.cc/tabs/r/ramones/i_believe_in_miracles_tab_ver_2.html ]
e|------------------------------------|--------------------------------------|
B|------------------------------------|--------------------------------------|
G|------------------------------------|--------------------------------------|
D|-9999999--7777777--5555555----------|-9999999--7777777--555555555----------|
A|-9999999--7777777--3333333----------|-9999999--7777777--555555555----------|
E|-7777777--5555555--3333333--3-2-3-5-|-7777777--5555555--333333333----------|

Bridge:
e|---------------------------------------------------------------------------|
B|---------------------------------------------------------------------------|
G|---------------------------------------------------------------------------|
D|-7777777777--5555555555--7777777777--555555--777777------------------------|
A|-7777777777--5555555555--7777777777--555555--777777------------------------|
E|-5555555555--3333333333--5555555555--333333--555555------------------------|

Solo: (play verse for rythm guitar)
e|---------------------------------------------------------------------------|
B|---------------------------------------------------------------------------|
G|-------------------------------7-9b-9b-7-----------------------------------|
D|-9b-9b-9b-9b-9b~--7h9-9b~--7-9-----------9~--------------------------------|
A|---------------------------------------------------------------------------|
E|---------------------------------------------------------------------------|

e|---------------------------------------------------------------------------|
B|-12-10-8-7---7--------------12~------12~-----------------------------------|
G|-----------9---9--11~---9b-------11b---------------------------------------|
D|---------------------------------------------------------------------------|
A|---------------------------------------------------------------------------|
E|---------------------------------------------------------------------------|
Comments