Ramones - I Believe In Miracles Chords & Tabs

 

I Believe In Miracles Chords & Tabs

Ramones Chords & Tabs

Version: 1 Type: Tab 0 ratings
1 star 2 stars 3 stars 4 stars 5 stars
comments

I Believe In Miracles Tab

its a great song enjoy it

INTRO AND VERSE

6--8-8-8-8--3-3--4-4-4-4---------------
5--10101010-5-5--6-6-6-6--8-8----------
4--10101010-5-5--6-6-6-6--1010---------        and repeat
3-------------------------1010---------
2--------------------------------------
1--------------------------------------

CHORUS 

6--8--8-8-8-8-8-8--6--6-6-6-6-6-6--4--4-4-4-4-4-4--4-3-4-6------
5--10-101010101010-8--8-8-8-8-8-8--6--6-6-6-6-6-6---------------
4--10-101010101010-8--8-8-8-8-8-8--6--6-6-6-6-6-6---------------      and repeat
3---------------------------------------------------------------
2---------------------------------------------------------------
1---------------------------------------------------------------
[ Tab from: http://www.guitartabs.cc/tabs/r/ramones/i_believe_in_miracles_tab.html ]
then you repeat a VERSE and CHORUS and then

BRIDGE

6--6----6/4-4----6--4-4-4-4-4-4/6-6-6-6-6-6-6-6--------
5--8----8/6-6----8--6-6-6-6-6-6/8-8-8-8-8-8-8-8--------
4--8----8/6-6----8--6-6-6-6-6-6/8-8-8-8-8-8-8-8--------
3------------------------------------------------------
2------------------------------------------------------
1------------------------------------------------------

and then i dont have the motherfuckers solo but the other
guitar play a INTRO and then play a VERSE a CHORUS an the END its like this

6--8-8-8-8--3-3--4-4-4-4------------
5--10101010-5-5--6-6-6-6--8-8-------
4--10101010-5-5--6-6-6-6--1010------      x4
3-------------------------1010------
2-----------------------------------
1-----------------------------------


             any shit DESTINYPUNK@HOTMAIL.COM
Comments