Ramones - Hey Ho Lets Go Chords & Tabs

 

Hey Ho Lets Go Chords & Tabs

Ramones Chords & Tabs

Version: 1 Type: Bass Tab 0 ratings
1 star 2 stars 3 stars 4 stars 5 stars
comments

Hey Ho Lets Go Bass Tab

Band: Ramones
Song: Hey Ho, Let's Go
Tabbed by: Daniel Luengas
E-Mail: daniel182col@hotmail.com

I'm completely sure this is right, enjoy...........

Intro:
G|-----------------------------------------------------------------|
D|-----------------------------------------------------------------|
A|----------5-7-----------5-7-----------5-7---------5-5-5----------|  x2
E|-5-5-5-5-------5-5-5-5-------5-5-5-5-------5-5-5---------5-5-5---|

Verse: 
G|------------------------------|
D|------------------------------|
A|------------------------------|  
E|-5-5-5-5-5-5-5-5-5-5-5-5-5----|

G|-----------------------------------------------------------------|
D|-----------------------------------------------------------------|
A|----------5-7-----------5-7-----------5-7---------5-5-5----------|  x2
E|-5-5-5-5-------5-5-5-5-------5-5-5-5-------5-5-5---------5-5-5---|

Chorus:
G|------------------------------|
D|------------------------------|
A|----------------------5-4-----|  
E|-5-5-5-5-5-5-4-4-4-4----------|
[ Tab from: http://www.guitartabs.cc/tabs/r/ramones/hey_ho_lets_go_btab.html ]
G|------------------------------|
D|------------------------------|
A|----------------------5-7-----|  
E|-5-5-5-5-5-5-4-4-4-4----------|

Verse: 
G|-----------------------------------------------------------------|
D|-----------------------------------------------------------------|
A|----------5-7-----------5-7-----------5-7---------5-5-5----------|  x2
E|-5-5-5-5-------5-5-5-5-------5-5-5-5-------5-5-5---------5-5-5---|

Chorus:
G|------------------------------|
D|------------------------------|
A|----------------------5-4-----|  
E|-5-5-5-5-5-5-4-4-4-4----------|

G|------------------------------|
D|------------------------------|
A|----------------------5-7-----|  
E|-5-5-5-5-5-5-4-4-4-4----------|

Verse:
G|-----------------------------------------------------------------|
D|-----------------------------------------------------------------|
A|----------5-7-----------5-7-----------5-7---------5-5-5----------|  x2
E|-5-5-5-5-------5-5-5-5-------5-5-5-5-------5-5-5---------5-5-5---|

Outro:
G|---------------------------|
D|---------------------------|
A|---------------------------|  x2
E|-5-5-5-5-5-5-5-5-5-5-5----|

ok, hope you like it, any comments e-mail me
Comments