Ramones - Here Today Gone Tomorrow Chords & Tabs

 

Here Today Gone Tomorrow Chords & Tabs

Ramones Chords & Tabs

Version: 1 Type: Tab

Here Today Gone Tomorrow Tab

   
-------------------------------------------------------------------------------
			     Here Today, Gone Tomarrow- Ramones
-------------------------------------------------------------------------------
Tabbed by:mike alberghini
Email:aghini@suscom.net

Tuning:standard

e|--2----2-2-2-2-2-2-----------------------------|
B|--3----3-3-3-3-3-3-----------------------------|
G|--2----2-2-2-2-2-2-----------------------------|
D|--0----0-0-0-0-0-0-----------------------------|
A|-----------------------------------------------|
E|-----------------------------------------------|

e|-------------------------------------------------|
B|-------------------------------------------------|
G|--3----3-3-3-3-3-3-------------------------------|
D|--4----4-4-4-4-4-4-------------------------------|
A|--4----4-4-4-4-4-4-------------------------------|
E|--2----2-2-2-2-2-2-------------------------------|

e|------------------------------------------------------|
B|------------------------------------------------------|
G|-1----1-1-1-1-1-1-------------------------------------|
D|-2----2-2-2-2-2-2-------------------------------------|
A|-2----2-2-2-2-2-2-------------------------------------|
E|-0----0-0-0-0-0-0-------------------------------------|

e|-2-2--0--0-------------------|
B|-3-3--0--0-------------------|
G|-2-2--1--1-------------------|
D|-0-0--2--2-------------------|
A|------2--2-------------------|
E|------0--0-------------------|
[ Tab from: http://www.guitartabs.cc/tabs/r/ramones/here_today_gone_tomorrow_tab.html ]
e|---------------------------------------|
B|---------------------------------------|
G|---------------------------------------|
D|--4--4-4-4--4--------------------------|
A|--4--4-4-4--4--------------------------|
E|--2--2-2-2--2--------------------------|

e|--------------------------------------------|
B|--------------------------------------------|
G|--------------------------------------------|
D|--4--4--4--4--4--4--4-----------------------|
A|--4--4--4--4--4--4--4-----------------------|
E|--2--2--2--2--2--2--2-----------------------|

e|--------------------------------------------------|
B|--------------------------------------------------|
G|--------------------------------------------------|
D|-4-4-4-4-4-4--------------------------------------|
A|-4-4-4-4-4-4--------------------------------------|
E|-2-2-2-2-2-2--------------------------------------|

these are the riffs here is the order:


1st riff: 2x
2nd riff: 2x
1st riff: 2x
2nd riff: 1x
3rd riff: 1x
1st riff: 4x
2nd riff: 2x
1st riff: 2x
2nd riff: 1x
3rd riff: 1x
1st riff: 2x
4th riff: 1x
5th riff: 1x
4th riff: 1x
6th riff: 1x
4th riff: 1x           these are  artificial harmonics ( lightly press these notes and pick)
7th riff: 1x              |    |
then its a |-e--d--d--d-|


| /  slide up
| \  slide down
| h  hammer-on
| p  pull-off
| ~  vibrato
| +  harmonic
| x  Mute note
===============================================================================