Ramones - Happy Birthday Mr Burns Chords & Tabs

 

Happy Birthday Mr Burns Chords & Tabs

Ramones Chords & Tabs

Version: 1 Type: Bass Tab 0 ratings
1 star 2 stars 3 stars 4 stars 5 stars
comments

Happy Birthday Mr Burns Bass Tab

   
-----------------------------------------------------------------------------
			   HAPPY BIRTHDAY MR. BURNS - The Ramones
-----------------------------------------------------------------------------

Tabbed by: Ignacio "Coco" Vespoli
Email: cocofuhgawz@hotmail.com

This is the song that the ramones play in their perfomance at "The Simpsons", for Mr. 
Birthday!!!


Tuning: Normal
_____________________________________________________________________________

I'd just like to say this gig sucks, hey, up yours, Springfield

1 2 3 4


Then the bass goes:

G|-------------------------------------------|
D|-------------------------------------------|
A|--3/4-4-4-4--3/4-4-4-4--3/4-4-4-4--3/4-4---|
E|-------------------------------------------|
[ Tab from: http://www.guitartabs.cc/tabs/r/ramones/happy_birthday_mr_burns_btab.html ]
Happy   birthday to you! happy birthday!
--------------------------------------------|
--------------------------------------------|
--3-3-3-3-3-3-3-3-3-4-4-4-4-4-4-4-4-4-4-4---|
--------------------------------------------|

Happy   birthday to you! happy birthday!
--------------------------------------------|
--------------------------------------------|
--3-3-3-3-3-3-3-3-3-4-4-4-4-4-4-4-4-4-4-4---|
--------------------------------------------|

Happy   birthdaaaayy    Burnsy
----------------------------------------|
----------------------------------------|
--3-3-3-3-3-3-3-3-3-4-4-4-4-4-4-4-4-4---|
----------------------------------------|

Happy   birthdaay   to you!!!
------------------------------------|
------------------------------------|
--3-3-3-3-3-3-3-3-3-4-4-4-4-4-0-4---|
------------------------------------|

Go to hell you old bastard.

_____________________________________________________________________________
 /  slide up
 \  slide down
 h  hammer-on
 p  pull-off
 ~  vibrato
 +  harmonic
 x  Mute note
=============================================================================
Comments? Send an e-mail!!!
Comments