Ramones - Do You Remember Rock N Roll Radio Chords & Tabs

 

Do You Remember Rock N Roll Radio Chords & Tabs

Ramones Chords & Tabs

Version: 3 Type: Bass Tab 0 ratings
1 star 2 stars 3 stars 4 stars 5 stars
comments

Do You Remember Rock N Roll Radio Bass Tab

-------------------------------------------------------------------------------
		   DO YOU REMEMBER RNR RADIO? - RAMONES
-------------------------------------------------------------------------------
Album: End of the Century/Loco Live
Tabbed By :ericwl02@yahoo.com

Tuning: Standard-live version

G|--------------------------|-----------------------------|
D|--------------------------|-----------------------------|
A|-3---3--------3---3-------|-----------------------------|
E|---3---333333---3---333333|333333333-1-2-3-33333333-1-2>|
  Riff 1                     Riff 2

G|-------------|------------|------------|-----------|
D|-------------|--1-2-55-7-5|--3-4-77-9-7|55---------|
A|--1-2-55-7--5|33----------|55----------|--77-55----|
E|33-----------|------------|------------|--------76-|
  Riff 3 pattern
[ Tab from: http://www.guitartabs.cc/tabs/r/ramones/do_you_remember_rock_n_roll_radio_btab_ver_3.html ]
G|---------------------------------------------------|
D|---------------------------------------------------|
A|------333-555------333-555------333-555-----333-555|
E|-33333--------33333--------33333-------33333-------|
  Verse

G|-------------------------------------------------------|
D|-----------------------555555-2222---------------------|
A|------------333333-5555------------333333-55555--------|
E|-3333333333-------------------------------------3333333|
              "do you remember..."

I need Rock'n, rock'n'roll radio Let's go

Do you remember Hullabaloo,
Upbeat, Shinding and Ed Sullivan too?
Do you remember rock'n'roll radio?
Do you remember rock'n'roll radio?

Do you remember Murray the K,
Alan Freed, and high energy?
It's the end, the end of the 70's
It's the end, the end of the century

Do you remember lying in bed
With your covers pulled up over your head?
Radio playin' so no one can see
We need change, we need it fast
Before rock's just part of the past
'Cause lately it all sounds the same to me
Oh oh oh oh, oh oh

Will you remember Jerry Lee,
John Lennon, T. Rex and OI Moulty?
It's the end, the end of the 70's
It's the end, the end of the century
Comments