Ramones - Chinese Rock Chords & Tabs

 

Chinese Rock Chords & Tabs

Ramones Chords & Tabs

Version: 2 Type: Tab 0 ratings
1 star 2 stars 3 stars 4 stars 5 stars
comments

Chinese Rock Tab

   
Chinese Rock-Ramones
Tabbed by FlakesBasstar

This is one cool song so have fun

/=Slide
~=Ring


		Intro
e-----------------------------------|
A-----------------------------------|
G------------------3/55555-3/55555--|
D-3/55555-3/55555--3/55555-3/55555--| X4
A-3/55555-3/55555--1/33333-1/33333--|
E-1/33333-1/33333-------------------|


    Verse
e------------|
A------------|
G------------|
D-3-3333333--| X4
A-3-3333333---555555|
E-1-1111111-3-333333|

[ Tab from: http://www.guitartabs.cc/tabs/r/ramones/chinese_rock_tab_ver_2.html ]
	  Chorus
e----------------------------|
A----------------------------|
G-77-------------------------|
D-77--77--55--77-------------| X4
A-55--77--55--77-------------|
E-----55--33--55-------------|


	Interlude
e---------------------|
A---------------------|
G-------------7-------|
D-3-5-7-77777-7--7-5~-| X2
A-3-5-7-77777-5--7-5~-|
E-1-3-5-55555----5-3~-|


End
e----------------|
A----------------|
G-4-6-4-6-4-6-7~-|
D-4-6-4-6-4-6-7~-|
A-2-4-2-4-2-4-5~-|
E----------------|


Song Order:

Intro X2
Verse X4
Chorus X4
Intro X2
Verse X4
Chorus X4
Interlude X1
Intro X2
Verse X4
Chorus X8
End X1

Im 100% positive that is 100% perfect
Comments