Ramones - California Sun Chords & Tabs

 

California Sun Chords & Tabs

Ramones Chords & Tabs

Version: 7 Type: Tab 0 ratings
1 star 2 stars 3 stars 4 stars 5 stars
comments

California Sun Tab

   
-----------------------------------------------------------------
CALIFORNIA SUN - Ramones
-----------------------------------------------------------------

Tuning: Standard

1,2,3,4

E5 A5 X4
E5 B5 A5 B5 E5


Well I'm going out west where I belong 
e|---------------------------------------|
B|---------------2-2-5-5-----------------|
G|-----1-4-4-4-4---------4---------------|
D|-2-2-----------------------------------|
A|---------------------------------------|
E|---------------------------------------|

Where the days are short and the nights are long
e|---------------------------------------|
B|---------------2-2-5-5-----------------|
G|-----1-4-4-4-4---------4---------------|
D|-2-2-----------------------------------|
A|---------------------------------------|
E|---------------------------------------|

E5                  A5                     
Where they walk and I'll walk
E5            A5        
They fish and I'll fish 
E5           A5
They sin and I'll sin 
E5           A5
They fly and I'll fly 
E5                             C#5        A5   B5      E5                     
Where they're out there having fun in the warm California sun 

[ Tab from: http://www.guitartabs.cc/tabs/r/ramones/california_sun_tab_ver_7.html ]
Well, I'm going out west out on the coast 
e|---------------------------------------|
B|---------------2-2-5-5-----------------|
G|-----1-4-4-4-4---------4---------------|
D|-2-2-----------------------------------|
A|---------------------------------------|
E|---------------------------------------|

Where the California girls are really the most 
e|---------------------------------------|
B|---------------2-2-5-5-----------------|
G|-----1-4-4-4-4---------4---------------|
D|-2-2-----------------------------------|
A|---------------------------------------|
E|---------------------------------------|

Where they walk and I'll walk They fish and I'll fish 
They sin and I'll sin They fly and I'll fly 
Where they're out there having fun in the warm California sun 

Well, the girls are frisky in old 'Frisco 
e|---------------------------------------|
B|---------------2-2-5-5-----------------|
G|-----1-4-4-4-4---------4---------------|
D|-2-2-----------------------------------|
A|---------------------------------------|
E|---------------------------------------|

A pretty little chick wherever you go
e|---------------------------------------|
B|---------------2-2-5-5-----------------|
G|-----1-4-4-4-4---------4---------------|
D|-2-2-----------------------------------|
A|---------------------------------------|
E|---------------------------------------|

Where they walk and I'll walk They fish and I'll fish 
They sin and I'll sin They fly and I'll fly 
Where they're out there having fun in the warm California sun
Comments