Ramones - California Sun Chords & Tabs

 

California Sun Chords & Tabs

Ramones Chords & Tabs

Version: 1 Type: Tab 0 ratings
1 star 2 stars 3 stars 4 stars 5 stars
comments

California Sun Tab

The lines are easy to find out from listening to the song.


heavy part:
[ Tab from: http://www.guitartabs.cc/tabs/r/ramones/california_sun_tab.html ]
e -------------------------------------------------------------------------------------I
b -------------------------------------------------------------------------------------I
g ------4----9----4----9----4----9----4----9---------4----6----2----4----9----I
d ------4----9----4----9----4----9----4----9---------4----6----2----4----9----I
a ------2----7----2----7----2----7----2----7---------2----4----0----2----7----I
e -------------------------------------------------------------------------------------I

light part:

e---------------------0-----------I
b------------------22------------I
g-------1-4-4-44----4---------I
d---22---------------------------I
a---------------------------------I
e---------------------------------I

enjoy!
Comments