Ramones - Bonzo Goes To Bitburg Chords & Tabs

 

Bonzo Goes To Bitburg Chords & Tabs

Ramones Chords & Tabs

Version: 1 Type: Bass Tab 0 ratings
1 star 2 stars 3 stars 4 stars 5 stars
comments

Bonzo Goes To Bitburg Bass Tab

Submitted by taylor lorance
*the bass just goes with the guitar*

Artist:Ramones
Song:Bonzo Goes to Bitburg
Album:Animal Boy/Ramones Mania

Intro:
G/---------------/
D/---------------/
A/---------------/
E/-3--1--0--1----/


Verse:
G/-------------------------------------------------------/
D/-------------------------------------------------------/
A/------3------------3--------------3---------------3----/
E/-1-------3-----1------3-----1--------3------1--------3-/

Pre-chorus:
G/-----------------------------------------/
D/-----------------------------------------/
A/-0----------0----------0-----------------/
E/----3---1------3---1------3---1---0------/


Chorus:
G/-----------------------------------------------------/
D/-----------------------------------------------------/
A/-3----------3----------3-----------3-----------------/
E/----3---1------3---1------3----1-------3---1----1----/

[ Tab from: http://www.guitartabs.cc/tabs/r/ramones/bonzo_goes_to_bitburg_btab.html ]
Verse:
G/-------------------------------------------------------/
D/-------------------------------------------------------/
A/------3------------3--------------3---------------3----/
E/-1-------3-----1------3-----1--------3------1--------3-/


Pre-chorus:
G/-----------------------------------------/
D/-----------------------------------------/
A/-0----------0----------0-----------------/
E/----3---1------3---1------3---1---0------/


Chorus:
G/-----------------------------------------------------/
D/-----------------------------------------------------/
A/-3----------3----------3-----------3-----------------/
E/----3---1------3---1------3----1-------3---1----1----/


Verse 2:
G/----------------------------/
D/-0-------0---------0--------/    x2
A/----0-------0---------0-----/
E/-------3-------3---------3--/



Pre-chorus:
G/-----------------------------------------/
D/-----------------------------------------/
A/-0----------0----------0-----------------/
E/----3---1------3---1------3---1---0------/


Chorus:
G/-----------------------------------------------------/
D/-----------------------------------------------------/
A/-3----------3----------3-----------3-----------------/
E/----3---1------3---1------3----1-------3---1----1----/

This chorus you might have to play it more until the lyrics fade away.
Comments