Ramones - Blitzkrieg Bop Chords & Tabs

 

Blitzkrieg Bop Chords & Tabs

Ramones Chords & Tabs

Version: 4 Type: Bass Tab 0 ratings
1 star 2 stars 3 stars 4 stars 5 stars
comments

Blitzkrieg Bop Bass Tab

   
-----------------------------------------------------------------------------
			     Blitzkrieg Bop - Ramones
-----------------------------------------------------------------------------

Tabbed By : Nick (xBassPlayer91x)
e-mail: 

Tuning: Standard (e,A,D,G)

Intro:

G|-------------------------------------------------------------------------|
D|--------------------0-0h2-2-2--------------------------------------------|
A|--0-0-0-0-0-0-0-0--------------------------------------------------------|
E|-------------------------------------------------------------------------|

G|-------------------------------------------------------------------------|
D|--------------------0-0h2-2-2--------------------------------------------|
A|--0-0-0-0-0-0-0-0--------------------------------------------------------|
E|-------------------------------------------------------------------------|

G|-------------------------------------------------------------------------|
D|--------------------0-0h2-2-2--------------------------------------------|
A|--0-0-0-0-0-0-0-0--------------------------------------------------------|
E|-------------------------------------------------------------------------|

G|-------------------------------------------------------------------------|
D|----------0-0-0-0--------------------------------------------------------|
A|--0-0-0-0---------0-0-0-0------------------------------------------------|
E|-------------------------------------------------------------------------|

Pre-Chorus (After Second 'Hey, Ho! Let's Go!):

G|-------------------------------------------------------------------------|
D|-------------------------------------------------------------------------|
A|-0(32 times)-------------------------------------------------------------|
E|-------------------------------------------------------------------------|

Chorus:
[ Tab from: http://www.guitartabs.cc/tabs/r/ramones/blitzkrieg_bop_btab_ver_4.html ]
G|-------------------------------------------------------------------------|
D|--------------------0-0h2-2-2--------------------------------------------|
A|--0-0-0-0-0-0-0-0--------------------------------------------------------|
E|-------------------------------------------------------------------------|

G|-------------------------------------------------------------------------|
D|--------------------0-0h2-2-2--------------------------------------------|
A|--0-0-0-0-0-0-0-0--------------------------------------------------------|
E|-------------------------------------------------------------------------|

G|-------------------------------------------------------------------------|
D|--------------------0-0h2-2-2--------------------------------------------|
A|--0-0-0-0-0-0-0-0--------------------------------------------------------|
E|-------------------------------------------------------------------------|

G|-------------------------------------------------------------------------|
D|----------0-0-0-0--------------------------------------------------------|
A|--0-0-0-0---------0-0-0-0------------------------------------------------|
E|-------------------------------------------------------------------------|

2nd Chorus:

G|-------------------------------------------------------------------------|
D|-0-0-0-0-0-0-0-0-0-0-0-0-0-0-0-0------------------0----------------------|
A|---------------------------------0-0-0-0-0-0-0-0----0--------------------|
E|-------------------------------------------------------------------------|

G|-------------------------------------------------------------------------|
D|-0-0-0-0-0-0-0-0-0-0-0-0-0-0-0-0-------------------0-0h2-2-2-------------|
A|----------------------------------2-2-2-2-2-2-2-2------------------------|
E|-------------------------------------------------------------------------|

This is the order:
Intro
Pre-Chorus
Chorus
Chorus
2nd Chorus
Chorus
Chorus
2nd Chorus
Pre-Chorus

*This is my first tab, I'm almost positive it's right because i played it once at a gig. Hope you like it.
Comments