Ramones - Blitzkrieg Bop Chords & Tabs

 

Blitzkrieg Bop Chords & Tabs

Ramones Chords & Tabs

Version: 2 Type: Bass Tab 1 rating
1 star 2 stars 3 stars 4 stars 5 stars
comments

Blitzkrieg Bop Bass Tab

   
Song : Blitzkrieg Bop
Band : Ramones
Bassist : Dee Dee Ramones
Tabbed by : Bryan Diaz

Intro (x2)
G----------------------------------|
D----------------------------------|
A-----------------5-5-5-7-7-7-7-7--|
E-5-5-5-5-5-5-5-5------------------| x3

G----------------------------------|
D----------------------------------|
A---------5-5-5-5------------------|
E-5-5-5-5---------5-5-5-5-5-5-5-5--| x1

Verse 
G----------------------------------|
D----------------------------------|
A----------------------------------|
E-5-5-5-5-5-5-5-5-5-5-5-5-5-5-5-5--| x2

Verse 2 (x2)
G----------------------------------|
D----------------------------------|
A-----------------5-5-5-7-7-7-7-7--|
E-5-5-5-5-5-5-5-5------------------| x3

G----------------------------------|
D----------------------------------|
A---------5-5-5-5------------------|
E-5-5-5-5---------5-5-5-5-5-5-5-5--| x1
[ Tab from: http://www.guitartabs.cc/tabs/r/ramones/blitzkrieg_bop_btab_ver_2.html ]
Chorus 
G----------------------------------------------------------------|
D----------------------------------------------------------------|
A---------------------------------5-5-5-5-5-5-5-5-------5-5-5-5-5|
E-5-5-5-5-5-5-5-5-5-5-5-5-5-5-5-5-----------------5-5-5----------|

G----------------------------------------------------------------|
D----------------------------------------------------------------|
A---------------------------------2-2-2-2-2-2-2-2-5-5-5-7-7-7-7-7|
E-5-5-5-5-5-5-5-5-5-5-5-5-5-5-5-5--------------------------------|

Outro
G----------------------------------------------------------------|
D----------------------------------------------------------------|
A----------------------------------------------------------------|
E-5-5-5-5-5-5-5-5-5-5-5-5-5-5-5-5-5-5-5-5-5-5-5-5-5-5-5-5-5-5-5-5|

Intro
(Drums and Vocals)
Verse
Verse 2
Chorus
Verse 2
Chorus
Verse 2
(Drums and Vocals)
Outro






Comments