Ramones - Blitzkreig Bop Chords & Tabs

 

Blitzkreig Bop Chords & Tabs

Ramones Chords & Tabs

Version: 1 Type: Tab 2 ratings
1 star 2 stars 3 stars 4 stars 5 stars
comments

Blitzkreig Bop Tab

   
#----------------------------------PLEASE NOTE---------------------------------#
#This file is the author's own work and represents their interpretation of the #
#song. You may only use this file for private study, scholarship, or research. #
#------------------------------------------------------------------------------#

BLITZKRIEG BOP
As recorded by The Ramones
(From the 2001 Album THE ANTHEM)



Words and Music by The Ramones
Arranged by Cali_8o5

Gtr I (E A D G B E) - 'The Guitar'

   Intro
    Q=86
   4/4
    Gtr I
    S S S S S S S S E. E S S S   S S S S S S S S E. E S S S
||-----------------------------|----------------------------|
||o----------------------------|----------------------------|
||------------------7--9-9-9-9-|-----------------7--9-9-9-9-|
||------------------7--9-9-9-9-|-----------------7--9-9-9-9-|
||o-7-7-7-7-7-7-7-7-5--7-7-7-7-|-7-7-7-7-7-7-7-7-5--7-7-7-7-|
||--5-5-5-5-5-5-5-5------------|-5-5-5-5-5-5-5-5------------|


  S S S S S S S S E. E S S S   E e E e S S S S S S S S
|----------------------------|--------------------------||
|----------------------------|-------------------------o||
|-----------------7--9-9-9-9-|-----7-7------------------||
|-----------------7--9-9-9-9-|-----7-7------------------||
|-7-7-7-7-7-7-7-7-5--7-7-7-7-|-7-7-5-5-7-7-7-7-7-7-7-7-o||
|-5-5-5-5-5-5-5-5------------|-5-5-----5-5-5-5-5-5-5-5--||


 Breakdown
  Wx3          S S S S S S S S S S S S S S S S
|------------|---------------------------------|
|------------|---------------------------------|
|------------|---------------------------------|
|------------|---------------------------------|
|------------|-7-7-7-7-7-7-7-7-7-7-7-7-7-7-7-7-|
|------------|-5-5-5-5-5-5-5-5-5-5-5-5-5-5-5-5-|


   Verse
    S S S S S S S S E. E S S S   S S S S S S S S E. E S S S
||-----------------------------|----------------------------|
||o----------------------------|----------------------------|
||------------------7--9-9-9-9-|-----------------7--9-9-9-9-|
||------------------7--9-9-9-9-|-----------------7--9-9-9-9-|
||o-7-7-7-7-7-7-7-7-5--7-7-7-7-|-7-7-7-7-7-7-7-7-5--7-7-7-7-|
||--5-5-5-5-5-5-5-5------------|-5-5-5-5-5-5-5-5------------|


  S S S S S S S S E. E S S S   E e E e S S S S S S S S
|----------------------------|--------------------------||
|----------------------------|-------------------------o||
|-----------------7--9-9-9-9-|-----7-7------------------||
|-----------------7--9-9-9-9-|-----7-7------------------||
|-7-7-7-7-7-7-7-7-5--7-7-7-7-|-7-7-5-5-7-7-7-7-7-7-7-7-o||
|-5-5-5-5-5-5-5-5------------|-5-5-----5-5-5-5-5-5-5-5--||


 Chorus
  $
  S S S S S S S S S S S S S S S S   S S S S S S S S E. E +S  S S
|---------------------------------|------------------------------|
|---------------------------------|------------------------------|
|-7-7-7-7-7-7-7-7-7-7-7-7-7-7-7-7-|-----------------7------------|
|-7-7-7-7-7-7-7-7-7-7-7-7-7-7-7-7-|-----------------7------------|
|-5-5-5-5-5-5-5-5-5-5-5-5-5-5-5-5-|-7-7-7-7-7-7-7-7-5--7-(7)-7-7-|
|---------------------------------|-5-5-5-5-5-5-5-5----5-(5)-5-5-|

[ Tab from: http://www.guitartabs.cc/tabs/r/ramones/blitzkreig_bop_tab.html ]
  S S S S S S S S S S S S S S S S   E S S E E E. E. +S  S
|---------------------------------|------------------------|
|---------------------------------|------------------------|
|-7-7-7-7-7-7-7-7-7-7-7-7-7-7-7-7-|-----------7--9--(9)-9\-|
|-7-7-7-7-7-7-7-7-7-7-7-7-7-7-7-7-|-----------7--9--(9)-9\-|
|-5-5-5-5-5-5-5-5-5-5-5-5-5-5-5-5-|-9-9-9-9-9-5--7--(7)-7\-|
|---------------------------------|-7-7-7-7-7--------------|


   2nd and 3th Verse
    S S S S S S S S E. E S S S   S S S S S S S S E. E S S S
||-----------------------------|----------------------------|
||o----------------------------|----------------------------|
||------------------7--9-9-9-9-|-----------------7--9-9-9-9-|
||------------------7--9-9-9-9-|-----------------7--9-9-9-9-|
||o-7-7-7-7-7-7-7-7-5--7-7-7-7-|-7-7-7-7-7-7-7-7-5--7-7-7-7-|
||--5-5-5-5-5-5-5-5------------|-5-5-5-5-5-5-5-5------------|


                                                 D.S.
  S S S S S S S S E. E S S S   E e E e S S S S S S S S
|----------------------------|--------------------------||
|----------------------------|-------------------------o||
|-----------------7--9-9-9-9-|-----7-7------------------||
|-----------------7--9-9-9-9-|-----7-7------------------||
|-7-7-7-7-7-7-7-7-5--7-7-7-7-|-7-7-5-5-7-7-7-7-7-7-7-7-o||
|-5-5-5-5-5-5-5-5------------|-5-5-----5-5-5-5-5-5-5-5--||


 Breakdown
  Wx3          S S S S S S S S S S S S s S  E
|------------|--------------------------------*|
|------------|--------------------------------*|
|------------|--------------------------------*|
|------------|--------------------------------*|
|------------|-7-7-7-7-7-7-7-7-7-7-7-7-7------*|
|------------|-5-5-5-5-5-5-5-5-5-5-5-5-5------*|



Duration Legend
---------------
W - whole; H - half; Q - quarter; E - 8th; S - 16th; T - 32nd; X - 64th; a - acciaccatura
+ - note tied to previous; . - note dotted; .. - note double dotted
Uncapitalized letters represent notes that are staccato (1/2 duration)
Irregular groupings are notated above the duration line
Duration letters will always appear directly above the note/fret number it represents the
duration for.  Duration letters with no fret number below them represent rests.  Multi-
bar rests are notated in the form Wxn, where n is the number of bars to rest for.  Low
melody durations appear below the staff

Tablature Legend
----------------
 h   - hammer-on
 p   - pull-off
 b   - bend
 pb  - pre-bend
 r   - bend release (if no number after the r, then release immediately)
 /\  - slide into or out of (from/to "nowhere")
 s   - legato slide
 S   - shift slide
 - natural harmonic
[n]  - artificial harmonic
n(n) - tapped harmonic
 ~   - vibrato
 tr  - trill
 T   - tap
 TP  - trem. picking
 PM  - palm muting
\n/  - tremolo bar dip; n = amount to dip
 \n  - tremolo bar down
 n/  - tremolo bar up
/n\  - tremolo bar inverted dip
 =   - hold bend; also acts as connecting device for hammers/pulls
  - volume swell (louder/softer)
 x   - on rhythm slash represents muted slash
 o   - on rhythm slash represents single note slash

Misc Legend
-----------
 |  - bar
||  - double bar
||o - repeat start
o|| - repeat end
*|  - double bar (ending)
 :  - bar (freetime)
 $  - Segno
 &  - Coda
Tempo markers -  = BPM(8/16=s8/s16), where s8 = swing 8ths, s16 = swing 16ths
Comments