Ramones - Beat On The Brat Chords & Tabs

 

Beat On The Brat Chords & Tabs

Ramones Chords & Tabs

Version: 3 Type: Tab 0 ratings
1 star 2 stars 3 stars 4 stars 5 stars
comments

Beat On The Brat Tab

The ramones      Beat on the brat

Intro:

|------------------| 2x
|------------------|
|------------4-----|
|4-4-4-4-4-4-2-----|
|2-2-2-2-2-2-------|
|------------------|


|-------------| 2x
|-------------|
|----4--------|
|4-4-2--------|
|2-2----------|
|-------------|


beat on the brat......

|--------------| many times
|--------------|
|--------------|
|44444444444444|
|22222222222222|
|--------------|
Palm muted...


oh yeah.....
|--------------|
|--------------|
|444444--------|
|222222--------|
|-------444444-|
|-------222222-|

beat on the brat......

|--------------| many times
|--------------|
|--------------|
|44444444444444|
|22222222222222|
|--------------|
Palm muted...
[ Tab from: http://www.guitartabs.cc/tabs/r/ramones/beat_on_the_brat_tab_ver_3.html ]
oh yeah.....
|--------------|
|--------------|
|444444--------|
|222222--------|
|-------444444-|
|-------222222-|


|--------------| many times
|--------------|
|--------------|
|44444444444444|
|22222222222222|
|--------------|
Palm muted...


oh yeah.....
|--------------|
|--------------|
|444444--------|
|222222--------|
|-------444444-|
|-------222222-|

|--------------| many times
|--------------|
|--------------|
|44444444444444|
|22222222222222|
|--------------|
Palm muted...

what can you do........

|----------------|2x
|----------------|
|----------------|
|----------------|
|777777--444444--|
|555555--222222--|

|--------------|2x
|--------------|
|-----  444444-|
|444444-222222-|
|222222--------|
|--------------|

|--------------|
|--------------|
|--------------|
|44444444444444|
|22222222222222|
|--------------|

listen for order but thats the whole song.
Have fun!!!
Comments