Rammstein - Zersturen Chords & Tabs

 

Zersturen Chords & Tabs

Rammstein Chords & Tabs

Version: 1 Type: Bass Tab

Zersturen Bass Tab

   
----------------------------------------------------------------------------
			     Zersturen - Rammstein
----------------------------------------------------------------------------

Tabbed By : Bee-Ay
e-mail: Leviathan_ben@hotmail.com

Tuning: C-G-C-F



Verse: [ With distortion ]
F|-------------------------------------|
C|*--4--------------------------------*|
G|*----6-6-5-6-6-5-6-5-6-6-6-5-5-6-6--*|
C|-------------------------------------|


Chorus:
F|-------------------------------|
C|4------------------------------|
G|--6-6-5-6-6-5-6-5-6-6-6-5-5-6-6| x2
C|-------------------------------|

[ Tab from: http://www.guitartabs.cc/tabs/r/rammstein/zersturen_btab.html ]
F|-------------------------------|
C|-------------------------------|
G|7-7-7-7-7-7-7-7-7-7-7-7-7-7-7-7|
C|-------------------------------|

F|-------------------------------|
C|4------------------------------|
G|--6-6-5-6-6-5-6-5-6-6-6-5-5-6-6| x3
C|-------------------------------|

F|---------------------------------------------------------------|
C|--------------------------------6-6-6-6-6-6-6-6-6-6-6-6-6-6-6-6|
G|7-7-7-7-7-7-7-7-7-7-7-7-7-7-7-7--------------------------------|
C|---------------------------------------------------------------|

Part After the guitar solo:
F|-------------------------------------|
C|----------2--------------------------|
G|4----2---------2----4----------------|
C|------------------------6-----6-6-6-6|

Thats pretty much it! 

Feel free to comment or mail.