Rammstein - Weisses Fleisch Chords & Tabs

 

Weisses Fleisch Chords & Tabs

Rammstein Chords & Tabs

Version: 3 Type: Tab

Weisses Fleisch Tab

T: 132 bpm
                                                                                
D#||------------------|------------------|------------------|------------------|
A#||------------------|------------------|------------------|------------------|
F#||------------------|------------------|------------------|------------------|
C#||------------------|------------------|------------------|------------------|
G#||------------------|------------------|------------------|------------------|
D#||------------------|------------------|------------------|------------------|


                                                                            
------------------|------------------|------------------|------------------|
------------------|------------------|------------------|------------------|
------------------|------------------|------------------|------------------|
------------------|------------------|------------------|------------------|
------------------|------------------|------------------|------------------|
------------------|------------------|------------------|------------------|


                                                         
------------------|------------------|------------------|
------------------|------------------|------------------|
------------------|------------------|------------------|
------------------|------------------|------------------|
------------------|------------------|------------------|
------------------|------------------|------------------|


                                                                     
----------------------------------|---------------------------------|
----------------------------------|---------------------------------|
----------------------------------|------------------------------4b-|
------4/5-----4/5-----4/5-----4/5-|------4/5-----4/5-----4/5--------|
------4/5-----4/5-----4/5-----4/5-|------4/5-----4/5-----4/5--------|
--2-2-----2-2-----2-2-----2-2-----|--2-2-----2-2-----2-2-----2-2----|


                                                                                        
----------------------------------|---------------------------------|------------------|
----------------------------------|---------------------------------|------------------|
----------------------------------|------------------------------4b-|------------------|
------4/5-----4/5-----4/5-----4/5-|------4/5-----4/5-----4/5--------|------------------|
------4/5-----4/5-----4/5-----4/5-|------4/5-----4/5-----4/5--------|------------------|
--2-2-----2-2-----2-2-----2-2-----|--2-2-----2-2-----2-2-----2-2----|------------------|


                                                                                        
------------------|----------------------------------|---------------------------------|
------------------|----------------------------------|---------------------------------|
------------------|----------------------------------|------------------------------4b-|
------------------|------4/5-----4/5-----4/5-----4/5-|------4/5-----4/5-----4/5--------|
------------------|------4/5-----4/5-----4/5-----4/5-|------4/5-----4/5-----4/5--------|
------------------|--2-2-----2-2-----2-2-----2-2-----|--2-2-----2-2-----2-2-----2-2----|


                                                                         
------------------|------------------|----------------------------------|
------------------|------------------|----------------------------------|
------------------|------------------|----------------------------------|
------------------|------------------|------4/5-----4/5-----4/5-----4/5-|
------------------|------------------|------4/5-----4/5-----4/5-----4/5-|
------------------|------------------|--2-2-----2-2-----2-2-----2-2-----|


                                                                        
---------------------------------|------------------|------------------|
---------------------------------|------------------|------------------|
------------------------------4b-|------------------|------------------|
------4/5-----4/5-----4/5--------|------------------|------------------|
------4/5-----4/5-----4/5--------|------------------|------------------|
--2-2-----2-2-----2-2-----2-2----|------------------|------------------|


                                                                                        
----------------------------------|---------------------------------|------------------|
----------------------------------|---------------------------------|------------------|
----------------------------------|------------------------------4b-|------------------|
------4/5-----4/5-----4/5-----4/5-|------4/5-----4/5-----4/5--------|------------------|
------4/5-----4/5-----4/5-----4/5-|------4/5-----4/5-----4/5--------|------------------|
--2-2-----2-2-----2-2-----2-2-----|--2-2-----2-2-----2-2-----2-2----|------------------|


                                                                                        
------------------|----------------------------------|---------------------------------|
------------------|----------------------------------|---------------------------------|
------------------|----------------------------------|------------------------------4b-|
------------------|------4/5-----4/5-----4/5-----4/5-|------4/5-----4/5-----4/5--------|
------------------|------4/5-----4/5-----4/5-----4/5-|------4/5-----4/5-----4/5--------|
------------------|--2-2-----2-2-----2-2-----2-2-----|--2-2-----2-2-----2-2-----2-2----|


                                                         
------------------|------------------|------------------|
------------------|------------------|------------------|
------------------|------------------|------------------|
------------------|------------------|------------------|
------------------|------------------|------------------|
------------------|------------------|------------------|


                                                                                        
----------------------------------|---------------------------------|------------------|
----------------------------------|---------------------------------|------------------|
----------------------------------|------------------------------4b-|------------------|
------4/5-----4/5-----4/5-----4/5-|------4/5-----4/5-----4/5--------|------------------|
------4/5-----4/5-----4/5-----4/5-|------4/5-----4/5-----4/5--------|------------------|
--2-2-----2-2-----2-2-----2-2-----|--2-2-----2-2-----2-2-----2-2----|------------------|


                                                                                      
------------------|----------------------------------|-------------------------------|
------------------|----------------------------------|-------------------------------|
------------------|----------------------------------|-------------------------------|
------------------|------4/5-----4/5-----4/5-----4/5-|------4/5-----4/5-----4/5-5----|
------------------|------4/5-----4/5-----4/5-----4/5-|------4/5-----4/5-----4/5-5----|
------------------|--2-2-----2-2-----2-2-----2-2-----|--2-2-----2-2-----2-2-----3----|


                                                                                   
-------------------|--------------------|-------------------|---------------------|
-------------------|--------------------|-------------------|---------------------|
-------------------|--------------------|-------------------|---------------------|
--2----------------|----------7----5----|--4----------------|----------------5----|
--2----------------|----------7----5----|--4----------------|----------------5----|
--0----------------|----------5----3----|--2----------------|------------2-2-3----|


                                                                            
-------------------|--------------------|----------------------------------|
-------------------|--------------------|----------------------------------|
-------------------|--------------------|----------------------------------|
--2----------------|----------7----5----|------4/5-----4/5-----4/5-----4/5-|
--2----------------|----------7----5----|------4/5-----4/5-----4/5-----4/5-|
--0----------------|----------5----3----|--2-2-----2-2-----2-2-----2-2-----|


                                                                     
---------------------------------|----------------------------------|
---------------------------------|----------------------------------|
------------------------------4b-|----------------------------------|
------4/5-----4/5-----4/5--------|------4/5-----4/5-----4/5-----4/5-|
------4/5-----4/5-----4/5--------|------4/5-----4/5-----4/5-----4/5-|
--2-2-----2-2-----2-2-----2-2----|--2-2-----2-2-----2-2-----2-2-----|


                                                                        
---------------------------------|------------------|------------------|
---------------------------------|------------------|------------------|
------------------------------4b-|------------------|------------------|
------4/5-----4/5-----4/5--------|------------------|------------------|
------4/5-----4/5-----4/5--------|------------------|------------------|
--2-2-----2-2-----2-2-----2-2----|------------------|------------------|


                                                                                        
----------------------------------|---------------------------------|------------------|
----------------------------------|---------------------------------|------------------|
----------------------------------|------------------------------4b-|------------------|
------4/5-----4/5-----4/5-----4/5-|------4/5-----4/5-----4/5--------|------------------|
------4/5-----4/5-----4/5-----4/5-|------4/5-----4/5-----4/5--------|------------------|
--2-2-----2-2-----2-2-----2-2-----|--2-2-----2-2-----2-2-----2-2----|------------------|

[ Tab from: http://www.guitartabs.cc/tabs/r/rammstein/weisses_fleisch_tab_ver_3.html ]
                                                                                        
------------------|----------------------------------|---------------------------------|
------------------|----------------------------------|---------------------------------|
------------------|----------------------------------|------------------------------4b-|
------------------|------4/5-----4/5-----4/5-----4/5-|------4/5-----4/5-----4/5--------|
------------------|------4/5-----4/5-----4/5-----4/5-|------4/5-----4/5-----4/5--------|
------------------|--2-2-----2-2-----2-2-----2-2-----|--2-2-----2-2-----2-2-----2-2----|


                                                                         
------------------|------------------|----------------------------------|
------------------|------------------|----------------------------------|
------------------|------------------|----------------------------------|
------------------|------------------|------4/5-----4/5-----4/5-----4/5-|
------------------|------------------|------4/5-----4/5-----4/5-----4/5-|
------------------|------------------|--2-2-----2-2-----2-2-----2-2-----|


                                                                        
---------------------------------|------------------|------------------|
---------------------------------|------------------|------------------|
------------------------------4b-|------------------|------------------|
------4/5-----4/5-----4/5--------|------------------|------------------|
------4/5-----4/5-----4/5--------|------------------|------------------|
--2-2-----2-2-----2-2-----2-2----|------------------|------------------|


                                                                                       
----------------------------------|-------------------------------|-------------------|
----------------------------------|-------------------------------|-------------------|
----------------------------------|-------------------------------|-------------------|
------4/5-----4/5-----4/5-----4/5-|------4/5-----4/5-----4/5-5----|--2----------------|
------4/5-----4/5-----4/5-----4/5-|------4/5-----4/5-----4/5-5----|--2----------------|
--2-2-----2-2-----2-2-----2-2-----|--2-2-----2-2-----2-2-----3----|--0----------------|


                                                                                   
--------------------|-------------------|---------------------|-------------------|
--------------------|-------------------|---------------------|-------------------|
--------------------|-------------------|---------------------|-------------------|
----------7----5----|--4----------------|----------------5----|--2----------------|
----------7----5----|--4----------------|----------------5----|--2----------------|
----------5----3----|--2----------------|------------2-2-3----|--0----------------|


                                                                                         
--------------------|-------------------|------------------|----------------------------|
--------------------|-------------------|------------------|--17b---17b---17b---17b-14--|
--------------------|-------------------|------------------|----------------------------|
----------7----5----|--4----------------|------------------|----------------------------|
----------7----5----|--4----------------|------------------|----------------------------|
----------5----3----|--2----------------|------------------|----------------------------|


                                                                                     
----------------------------|----------------------------|--------------------17r---|
--17b---17b---17r-----------|--17b---17b---17b---17b-14--|--17b---17b---17r---------|
-------------------14-------|----------------------------|--------------------------|
----------------------16----|----------------------------|--------------------------|
----------------------------|----------------------------|--------------------------|
----------------------------|----------------------------|--------------------------|


                                                          
----------------------------|----------------------------|
--17b---17b---17b---17b-14--|--17b---17b---17r-----------|
----------------------------|-------------------14-------|
----------------------------|----------------------16----|
----------------------------|----------------------------|
----------------------------|----------------------------|


                                                                                          
--17h14----14-------------------------------|--------------------------------------------|
--------17----17h14-17h14----14-------------|--------------------------------------------|
--------------------------16----16h14-16~---|--16h14----14-------------------------------|
--------------------------------------------|--------16----16h14-16h14----14-------------|
--------------------------------------------|--------------------------16----16h14-16----|
--------------------------------------------|--------------------------------------------|


                                                                            
------------------|------------------|------------------|------------------|
------------------|------------------|------------------|------------------|
------------------|------------------|------------------|------------------|
------------------|------------------|------------------|------------------|
------------------|------------------|------------------|------------------|
------------------|------------------|------------------|------------------|


                                                                                       
---------------------------------|---------------------------------|------------------|
---------------------------------|---------------------------------|------------------|
------------------------------4b-|------------------------------4b-|------------------|
------4/5-----4/5-----4/5--------|------4/5-----4/5-----4/5--------|------------------|
------4/5-----4/5-----4/5--------|------4/5-----4/5-----4/5--------|------------------|
--2-2-----2-2-----2-2-----2-2----|--2-2-----2-2-----2-2-----2-2----|------------------|


                                                                                       
------------------|---------------------------------|---------------------------------|
------------------|---------------------------------|---------------------------------|
------------------|------------------------------4b-|------------------------------4b-|
------------------|------4/5-----4/5-----4/5--------|------4/5-----4/5-----4/5--------|
------------------|------4/5-----4/5-----4/5--------|------4/5-----4/5-----4/5--------|
------------------|--2-2-----2-2-----2-2-----2-2----|--2-2-----2-2-----2-2-----2-2----|


                                                                        
------------------|------------------|---------------------------------|
------------------|------------------|---------------------------------|
------------------|------------------|------------------------------4b-|
------------------|------------------|------4/5-----4/5-----4/5--------|
------------------|------------------|------4/5-----4/5-----4/5--------|
------------------|------------------|--2-2-----2-2-----2-2-----2-2----|


                                                                        
---------------------------------|------------------|------------------|
---------------------------------|------------------|------------------|
------------------------------4b-|------------------|------------------|
------4/5-----4/5-----4/5--------|------------------|------------------|
------4/5-----4/5-----4/5--------|------------------|------------------|
--2-2-----2-2-----2-2-----2-2----|------------------|------------------|


                                                                                      
---------------------------------|-------------------------------|-------------------|
---------------------------------|-------------------------------|-------------------|
------------------------------4b-|-------------------------------|-------------------|
------4/5-----4/5-----4/5--------|------4/5-----4/5-----4/5-5----|--2----------------|
------4/5-----4/5-----4/5--------|------4/5-----4/5-----4/5-5----|--2----------------|
--2-2-----2-2-----2-2-----2-2----|--2-2-----2-2-----2-2-----3----|--0----------------|


                                                                                   
--------------------|-------------------|---------------------|-------------------|
--------------------|-------------------|---------------------|-------------------|
--------------------|-------------------|---------------------|-------------------|
----------7----5----|--4----------------|----------------5----|--2----------------|
----------7----5----|--4----------------|----------------5----|--2----------------|
----------5----3----|--2----------------|------------2-2-3----|--0----------------|


                                                                                   
--------------------|-------------------|---------------------|-------------------|
--------------------|-------------------|---------------------|-------------------|
--------------------|-------------------|---------------------|-------------------|
----------7----5----|--4----------------|----------------5----|--2----------------|
----------7----5----|--4----------------|----------------5----|--2----------------|
----------5----3----|--2----------------|------------2-2-3----|--0----------------|


                                                                                   
--------------------|-------------------|---------------------|-------------------|
--------------------|-------------------|---------------------|-------------------|
--------------------|-------------------|---------------------|-------------------|
----------7----5----|--4----------------|----------------5----|--2----------------|
----------7----5----|--4----------------|----------------5----|--2----------------|
----------5----3----|--2----------------|------------2-2-3----|--0----------------|


                                                                         
--------------------|--------------------------|-----------------------||
--------------------|--------------------------|-----------------------||
--------------------|--------------------------|-----------------------||
----------7----5----|--------------------------|-----------------------||
----------7----5----|--4--5--4--5--4--5--4--5--|--4--5--4--5--4--------||
----------5----3----|--2--3--2--3--2--3--2--3--|--2--3--2--3--2--------||