Rammstein - Stripped Chords & Tabs

 

Stripped Chords & Tabs

Rammstein Chords & Tabs

Version: 1 Type: Tab 0 ratings
1 star 2 stars 3 stars 4 stars 5 stars
comments

Stripped Tab

#-----------------------------------------------------------------------------#
#-- File created with Instab - http://www.pconline.com/~smcarey/instab.html --#
#-----------------------------------------------------------------------------#

Author/Artist: Rammstein
Title: Stripped
Transcribed by: Sami Aapaoja
Email: saapaoja@hotmail.com

Guitar plays only these two riffs.
[ Tab from: http://www.guitartabs.cc/tabs/r/rammstein/stripped_tab.html ]
------------------------------------------------------------------------------
------------------------------------------------------------------------------
------------------------------------------------------------------------------
---------9-----------9-----------9-----------9--------------------------------
---------7-----------7-----------7-----------7--------------------------------
-0--0--0-----0--0--0-----0--0--0-----0--0--0----------------------------------
 Intro                                       (some harmonic)                  

------------------------------------------------------------------------------
------------------------------------------------------------------------------
-7---------------5------------------------------------------------------------
-7-------7-------5--------------9-----------9---------------------------------
-5-------7-------3--------------7-----------7---------------------------------
---------5--------------0--0--0-----0--0--0-----------------------------------
 Chorus                                                                       

Comments