Rammstein - Stein Um Stein Chords & Tabs

 

Stein Um Stein Chords & Tabs

Rammstein Chords & Tabs

Version: 1 Type: Tab 0 ratings
1 star 2 stars 3 stars 4 stars 5 stars
comments

Stein Um Stein Tab

-------------------------------------------------------------------------------
			     Rammstein - Stein um Stein
-------------------------------------------------------------------------------
Tabbed by:Pedro	
Email:shirousagi81@yahoo.com

This is my first submitted tab but I have been playing for a while and didn't see this
song posted.  Listen to the song for timing.  

| /  slide up
| \  slide down

Tuning:CGCFAD
0:00 Verse 1 (Clean)                       0:48

D|---------------------------------------|-------------------------------------------|
A|---------------------------------------|-----------------------------------6------8|
F|-2-3-5-3---2-----0-------------------0-|2-3-5-3-2-2----0-----------------5------7--|
C|---------3-----3---3-2-0--3-0-3-0--3---|-------------3---3-2-0--3-0-3--3------5----|
G|---------------------------------------|-------------------------------------------|
C|---------------------------------------|-------------------------------------------|
                  3X
1:04 Chorus

D|-----------------------------------------------|
A|-----------------------------------------------|
F|-----------------------------------------------| 4X
C|-----------------------------------------------|
G|12-0-12-12-0-12-12-0--10-8-0--10-8-0--10-8-----|
C|12-0-12-12-0-12-12-0--10-8-0--10-8-0--10-8-----|
                   
1:20 Verse 2
[ Tab from: http://www.guitartabs.cc/tabs/r/rammstein/stein_um_stein_tab.html ]
Play first measure once and then continue into second measure.

1:56 Chorus (Same as above 4X)

2:12                     
D|------------------------|-------------------------------------|
A|------------------------|-------------------------------------|
F|------------------------|-------------------------------------|
C|------------------------|-------------------------------------|
G|-12\--8---12\--8-/15----|-12\--8---12\--8---12\--8\--3--/5----|
C|-12\--8---12\--8-/15----|-12\--8---12\--8---12\--8\--3--/5----|
            2x 

2:46-End 
D|---------------------------------------------------------------------------|
A|---------------------------------------------------------------------------|
F|---------------------------------------------------------------------------|
C|---------------------------------------------------------------------------|x8
G|12-0-0-12-0-0-12-0-12-0-0-12-0-0-12-0--10-8-8-10-8-8-10-8-8-7-7-7-7-7-7-7-7|
C|12-0-0-12-0-0-12-0-12-0-0-12-0-0-12-0--10-8-8-10-8-8-10-8-8-7-7-7-7-7-7-7-7|
                                                           |Stop here on          final repeat

I didn't add the solo since it's pretty easy and really just takes a few listens to get
it down solid or to improvise your own.    

Feel free to send comments or questions.
Pedro
===============================================================================
Comments