Rammstein - Spieluhr Chords & Tabs

 

Spieluhr Chords & Tabs

Rammstein Chords & Tabs

Version: 3 Type: Bass Tab 0 ratings
1 star 2 stars 3 stars 4 stars 5 stars
comments

Spieluhr Bass Tab

   
Band: Rammstein
Song: Spieluhr
Tabbed by:Steven Warner
This tab will hopefully not become f***ed up like the last one...
Please rate this tab and comment!

Verse:
G|----------------------------------------------------------------
D|----------------------------------------------------------------
A|----------------------------------------------------------------
D|3-0-0-3-0-0-3-0|3-0-0-3-0-0-3-0|3-0-0-3-0-0-3-0|3-0-0-3-0-6-6-6-

Chorus:
G|-------------------------------
D|-------------------------------
A|5-5-5-5-5-5-5-5-5-5-5-5-5-5-5-5
D|-------------------------------
[ Tab from: http://www.guitartabs.cc/tabs/r/rammstein/spieluhr_btab_ver_3.html ]
G|-------------------------------
D|-------------------------------
A|3-3-3-3-3-3-3-3-3-3-3-3-3-3-3-3
D|-------------------------------

G|-------------------------------
D|-------------------------------
A|1-1-1-1-1-1-1-1-1-1-1-1-3-3-3-3
D|-------------------------------

G|-------------------------------
D|-------------------------------
A|-------------------------------
D|3-3-3-3-3-3-3-3-7-7-7-7-7-7-7-7

Fill: Only play after first chorus

G|---------------
D|---------------
A|---------------
D|3-0-0-3-0-0-3-0

Ok there you go. There the verse and chorus riffs as well as the fill. 
You just have to figure out timing and order

Any comments or suggestions e-mail me at 
Steven.Warner@dial.pipex.com
Comments