Rammstein - Sonne Chords & Tabs

 

Sonne Chords & Tabs

Rammstein Chords & Tabs

Version: 3 Type: Tab 2 ratings
1 star 2 stars 3 stars 4 stars 5 stars
comments

Sonne Tab

   
I urgently imply that you do not follow my tab to the letter...
I'm not sure about the chorus part, though...


tuning:
e -> e
B -> B
G -> G
D -> D
A -> A
e -> D

h=hammer on
p=pull off

intro: (after countdown)
   |---------------------------------
   |---------------------------------
   |---------------------------------
   |0---6---7---6---7---6---0--------
   |0---6---7---6---7---6---0--------
   |0---6---7---6---7---6---0--------
   |  h                   p
4X |
   |---------------------------------
   |---------------------------------
   |---------------------------------
   |0---6---7---6---7---(6)----------
   |0---6---7---6---7---(6)----------
   |0---6---7---6---7---(6)----------
   |  h             * (p)

*the second time you play this chord try holding it a bit longer than normal...
if you do; use a pull of for the last chord, the one inside the '( )'
[ Tab from: http://www.guitartabs.cc/tabs/r/rammstein/sonne_tab_ver_3.html ]
(figure rhythm out for yourself...)

Verses:

|------------------------------------------------------------------
|------------------------------------------------------------------
|------------------------------------------------------------------
|0---6---7---6---7---6---0--------0---6---7---6---7---(6)----------
|0---6---7---6---7---6---0--------0---6---7---6---7---(6)----------
|0---6---7---6---7---6---0--------0---6---7---6---7---(6)----------
|  h                   p            h              (p)

Chorus: (not sure about the chorus...)

|------------------------------------------------------------------
|------------------------------------------------------------------
|------------------------------------------------------------------
|4----9----2----5-------4----9----2----5---------------------------
|4----9----2----5-------4----9----2----3---------------------------
|2----7----0----3-------2----7----0----3---------------------------


Easy as pie!! ;)

-=The sound of the guitars will never die out...=-
Comments