Rammstein - Sonne Chords & Tabs

 

Sonne Chords & Tabs

Rammstein Chords & Tabs

Version: 1 Type: Tab 2 ratings
1 star 2 stars 3 stars 4 stars 5 stars
comments

Sonne Tab

   
Sonne
R A M M S T I E N
Tabbed by Aaron Bridgeman (rokken@sicness.net)

http://bogans.arecool.net

TUNING: Drop D (D A D G B e)

KEY:
~ = sustain
p = pull-off
[ Tab from: http://www.guitartabs.cc/tabs/r/rammstein/sonne_tab.html ]
MAIN RIFF:
e|----------------------------------------------------------|
B|----------------------------------------------------------|
G|----------------------------------------------------------|
D|-0--6-0-6p5-0----0-6-0-6-0----0--6-0-6p5-0----0-6-0-6-5~~-|
A|-0--6-0-6p5-0----0-6-0-6-0----0--6-0-6p5-0----0-6-0-6-5~~-|
D|-0--6-0-6p5-0----0-6-0-6-0----0--6-0-6p5-0----0-6-0-6-5~~-|

CHORUS:
e|------------------|
B|------------------|
G|------------------|
D|-2----7----5----4-|
A|-2----7----5----4-|
D|-2----7----5----4-|
Hold those notes

BEST RAMMSTEIN SONG EVER?
Comments