Rammstein - Sehnsucht Chords & Tabs

 

Sehnsucht Chords & Tabs

Rammstein Chords & Tabs

Version: 1 Type: Tab 1 rating
1 star 2 stars 3 stars 4 stars 5 stars
comments

Sehnsucht Tab

Sehnsucht
R A M M S T E I N
Tabbed By Aaron Bridgeman (rokken@sicness.net)

http://bogans.arecool.net

KEY:
pm. = palm mute
\   = slide down
~   = sustain
[ Tab from: http://www.guitartabs.cc/tabs/r/rammstein/sehnsucht_tab.html ]
MAIN RIFF:
e|----------------------------------|
B|----------------------------------|
G|----------------------------------|
D|-------9\8---9\8--12-----10---9\7-|
A|-------7\6---7\6--10-----8----7\5-|
E|-0-0-0-----0---------0-0---00-----|
pm . . .     .         . .   ..

FILL:
e|----------|
B|----------|
G|----------|
D|-5--------|
A|-3-5-7-2~-|
E|---3-5-0~-|

CHORUS NEAR END:
e|-----------------------------------------|
B|-----------------------------------------|
G|-----------------------------------------|
D|-9~~---------9~~-------------------------|
A|-7~~---------7~~---------10~~--10-9--7~~-|
E|-----0-0-0-0-----0-0-0-0-8~~~--8--7--5~~-|
pm     . . . .     . . . .

RAMMSTEIN!
Comments