Rammstein - Rosenrot Chords & Tabs

 

Rosenrot Chords & Tabs

Rammstein Chords & Tabs

Version: 3 Type: Bass Tab

Rosenrot Bass Tab

   
#Artist: Rammstein
# Album: Rosenrot
# Title: Rosenrot
#Tuning: Flat

#Tab by: Lenny L   
#E-mail: LennartLenk@gmx.de

Intro

F#|-----------------|-----------------|
C#|-----------------|-----------------|
G#|-4-4-4-4-4-4-4-4-|-----------------|
D#|-----------------|-5-5-5-5-5-5-5-5-|
					(1 time)
F#|-----------------|-----------------|
C#|-----------------|-----------------|
G#|-4-4-4-4-4-4-4-4-|-----------7-7-7-|
D#|-----------------|-5-5-5-5-5-------|

Verse

F#|-----------------|-----------------|
C#|-----------------|-----------------|
G#|-4-4-4-4-4-4-4-4-|-----------------|
D#|-----------------|-5-5-5-5-5-5-5-5-|
					(repeat 4 times)
F#|-----------------|-----------------|
C#|-----------------|-----------------|
G#|-4-4-4-4-4-4-4-4-|-----------7-7-7-|
D#|-----------------|-5-5-5-5-5-------|

[ Tab from: http://www.guitartabs.cc/tabs/r/rammstein/rosenrot_btab_ver_3.html ]
Chorus 


F#|-----------------|-----------------|
C#|-----------------|-----------------|
G#|-4-4-4-4-4-4-4-4-|-----------------|
D#|-----------------|-5-5-5-5-5-5-5-5-|
					(2 times)
F#|-----------------|-----------------|
C#|-----------------|-----------------|
G#|-4-4-4-4-4-4-4-4-|-----------0-0-0-|
D#|-----------------|-5-5-5-5-5-------|

Verse

Chorus

B-Part

F#|-----------------|-----------------|
C#|-----------------|-----------------|
G#|-4-2---4-2---4-2-|-5-2---5-2---5-2-|
D#|-----0-----0-----|-----0-----0-----|
					(2 time)
F#|-----------------|-----------------|
C#|-----------------|-----------------|
G#|-4-2---4-2---4-2-|-5-2---5-2---5-2-|
D#|-----0-----0-----|-----0-----0-----|

Verse

Chorus

B-Part

End on "C"

Have fun with playing! Corrections to "LennartLenk@gmx.de"