Rammstein - Reise Reise Chords & Tabs

 

Reise Reise Chords & Tabs

Rammstein Chords & Tabs

Version: 4 Type: Tab 0 ratings
1 star 2 stars 3 stars 4 stars 5 stars
comments

Reise Reise Tab

   
tuning: C-G-C-F-A-D

1|---------------------------------------------------------------|
2|---------------------------------------------------------------|
3|---------------------------------------------------------------|
4|1-4-8-6--1-1-11-11---------------------------------------------|
5|1-4-8-6--1-1-11-11---------------------------------------------|
6|1-4-8-6--1-1-11-11---------------------------------------------|
[ Tab from: http://www.guitartabs.cc/tabs/r/rammstein/reise_reise_tab_ver_4.html ]
1|---------------------------------------------------------------|
2|---------------------------------------------------------------|
3|---------------------------------------------------------------|
4|1-0-1--1-0-1-1-0-1--0-1-0--------------------------------------|
5|1-0-1--1-0-1-1-0-1--0-1-0--------------------------------------|
6|1-0-1--1-0-1-1-0-1--0-1-0--------------------------------------|

outro for guitar
1|--4-6-7-6---------------4-6-7-6-9-11--11-13-9------------------|
2|4----------7-6-7-6----4----------------------------------------|
3|-------------------3-6--------------11-------------------------|
4|---------------------------------------------------------------|
5|---------------------------------------------------------------|
6|---------------------------------------------------------------|

from teppie
Comments