Rammstein - Reise Reise Chords & Tabs

 

Reise Reise Chords & Tabs

Rammstein Chords & Tabs

Version: 2 Type: Tab 0 ratings
1 star 2 stars 3 stars 4 stars 5 stars
comments

Reise Reise Tab

Title:		Reise, Reise
Artist:		Rammstein
Album:		Reise, Reise (2004)
Tab:		Kristoffer Salamonsen

	(Drop D tuning)


Song played w/dist

Intro:
0:07
e|--------------------|
B|--------------------|
G|--------------------|
D|--------------------|
A|--------------------|
D|--0-3-7-5--0-0-2-2--|


Main Riff: 
0:22
e|---------------------|
B|---------------------|
G|---------------------|
D|---------------------|
A|--0-3-7-5--0-0-/9-9--|
D|--0-3-7-5--0-0-/9-9--|

Verse: 
0:37
e|--------------------------|
B|--------------------------|
G|--------------------------|
D|--------------------------|x3
A|--2-0-2--2-2-0-2-0-2-3----|
D|--2-0-2--2-2-0-2-0-2-3----|
[ Tab from: http://www.guitartabs.cc/tabs/r/rammstein/reise_reise_tab_ver_2.html ]
Main Riff: 
1:15
e|---------------------|
B|---------------------|
G|---------------------|
D|---------------------|
A|--0-3-7-5--0-0-/9-9--|
D|--0-3-7-5--0-0-/9-9--|

Verse: 
1:44
e|--------------------------|
B|--------------------------|
G|--------------------------|
D|--------------------------|x2
A|--2-0-2--2-2-0-2-0-2-3----|
D|--2-0-2--2-2-0-2-0-2-3----|

Main Riff: 
2:14
e|---------------------|
B|---------------------|
G|---------------------|
D|---------------------|x2
A|--0-3-7-5--0-0-/9-9--|
D|--0-3-7-5--0-0-/9-9--|

Main Riff: 
2:59
e|---------------------------|
B|---------------------------|
G|---------------------------|
D|---------------------------|x3
A|--0-3-7-5--0-0-/9-9-[0-0]--|
D|--0-3-7-5--0-0-/9-9-[0-0]--|

...
Comments