Rammstein - Rein Raus Chords & Tabs

 

Rein Raus Chords & Tabs

Rammstein Chords & Tabs

Version: 2 Type: Tab 0 ratings
1 star 2 stars 3 stars 4 stars 5 stars
comments

Rein Raus Tab

Rein Raus, wow what an addictive riff, Rammstein are re-growing on
me, really!


Intro part one (with effects)
Play as many times as neccesary      End On
e|--------------------------------|-------------------------------|
B|--------------------------------|-------------------------------|
G|--------------------------------|-------------------------------|
D|--------------------------------|-2-2-2-------------------------|
A|--------------------------------|-2-2-2-------------------------|
D|-2-x-1-2-x-1-2-2-4--------------|-2-2-2-------------------------|

Intro part two (Distortioooon)
[ Tab from: http://www.guitartabs.cc/tabs/r/rammstein/rein_raus_tab_ver_2.html ]
e|---------------------------------------------------------------|
B|---------------------------------------------------------------|
G|---------------------------------------------------------------|
D|---------------------------------------------------------------|
A|-2-1-1-2-1-1-2-1-----------------------------------------------|
D|-2-1-1-2-1-1-2-1-----------------------------------------------|
     . .   . .   .

Play that as many times as you want!

Verse & Chorus are not tabbed yet sorry :{

Solo


          
e|-----------------------------------------------------------|
B|-10-9-9-10-9-9-10-9-10-9-9----10-9-9-10-9-9-10-9-10-9-9-13-|
G|---------------------------9-------------------------------|
D|-----------------------------------------------------------|
A|-----------------------------------------------------------|
D|-----------------------------------------------------------|
Comments