Rammstein - Moskau Chords & Tabs

 

Moskau Chords & Tabs

Rammstein Chords & Tabs

Version: 1 Type: Tab 0 ratings
1 star 2 stars 3 stars 4 stars 5 stars
comments

Moskau Tab

   
heyyo
didnt see this song, so i decided to tab a little bit out

Drop D tuning  (D A D G B E)
[ Tab from: http://www.guitartabs.cc/tabs/r/rammstein/moskau_tab.html ]
---------------------------------------------------|
---------------------------------------------------|
-------------------------------------------------o-|
-6---8---2--------6--8--2---9--8--------------o-|
-6---8---2--------6--8--2---9--8----------------|
-6---8---2--------6--8--2---9--8----------------|

-------------------------------------
-------------------------------------
-------------------------------------
-6--8--2------6--3--2--------------
-6--8--2------6--3--2--------------
-6--8--2------6--3--2--------------


repeats foreverthats about it for now, first tab, lemme know what u think
-ISd3d flippit  
Comments