Rammstein - Mein Teil Chords & Tabs

 

Mein Teil Chords & Tabs

Rammstein Chords & Tabs

Version: 2 Type: Tab 0 ratings
1 star 2 stars 3 stars 4 stars 5 stars
comments

Mein Teil Tab

Rammstein - Mein Teil

Tabbed by Elvisz(elvisz@kornkids.com)

Here's the tab for mein teil it's easy and killer!
Intro:
|--------------------------------------|
|--------------------------------------|
|--------------------------------------|
|--------------------------------------|
|-h2-0-h2--2-0-h2-h5-h2-0-h2~--2-0-h2~-|
|-h2-0-h2--2-0-h2-h5-h2-0-h2~--2-0-h2~-|

Fill1:
|----------------------------------------------------------------------|----|
|----------------------------------------------------------------------|----|
|----------------------------------------------------------------------|----|
|----------------------------------------------------------------------|----|
|-h2-0-h2--h2-0-h2--h2-0-h2--h2-0-h2--h2-0-h2--h2-0-h2--h2-0-h2-h2-0-h2|-2x-|
|-h2-0-h2--h2-0-h2--h2-0-h2--h2-0-h2--h2-0-h2--h2-0-h2--h2-0-h2-h2-0-h2|-2x-|

Verse:
|-----------------------------|
|-----------------------------|
|-----------------------------|
|-----------------------------|
|-----------------------------|
|-2-0-2--2-0-2-5-2-0-2--2-0-2-|
  . . .  . . . . . . .  . . .   .p.m.

Pre-Chorus:
|--------------------|--------------------|
|--------------------|--------------------|
|--------------------|--------------------|
|--------------------|--------------------|
|-h2-0-h2-h5-h2-0-h2-|-222222222222222222-|
|-h2-0-h2-h5-h2-0-h2-|-222222222222222222-|
                       ..................  .p.m.

Chorus:
|--------------------------------------|----------|
|--------------------------------------|----------|
|--------------------------------------|----------|
|--------------------------------------|-0~~~3~~~-|
|-h2-0-h2--2-0-h2-h5-h2-0-h2~--2-0-h2~-|-0~~~3~~~-|
|-h2-0-h2--2-0-h2-h5-h2-0-h2~--2-0-h2~-|-0~~~3~~~-|

|--------------------------------------|----------|
|--------------------------------------|----------|
|--------------------------------------|----------|
|--------------------------------------|-3~~~0~~~-|
|-h2-0-h2--2-0-h2-h5-h2-0-h2~--2-0-h2~-|-3~~~0~~~-|
|-h2-0-h2--2-0-h2-h5-h2-0-h2~--2-0-h2~-|-3~~~0~~~-|

Verse:
|-----------------------------|
|-----------------------------|
|-----------------------------|
|-----------------------------|
|-----------------------------|
|-2-0-2--2-0-2-5-2-0-2--2-0-2-|
  . . .  . . . . . . .  . . .   .p.m.
[ Tab from: http://www.guitartabs.cc/tabs/r/rammstein/mein_teil_tab_ver_2.html ]
Bridge1:
|-----------------------------------------------------------------------|
|-----------------------------------------------------------------------|
|-----------------------------------------------------------------------|
|-----------------------------------------------------------------------|
|-----------------------------------------------------------------------|
|-2222222222222222-33333333-55555555-2222222222222222-33333333-00000000-|
  ................ ........ ........ ................ ........ ........  .p.m

Bridge2:
|-----------------------------------------------------------------------|
|-----------------------------------------------------------------------|
|-----------------------------------------------------------------------|
|-----------------------------------------------------------------------|
|-2222222222222222-33333333-55555555-2222222222222222-33333333-00000000-|
|-2222222222222222-33333333-55555555-2222222222222222-33333333-00000000-|

Pre-Chorus:
|--------------------|--------------------|
|--------------------|--------------------|
|--------------------|--------------------|
|--------------------|--------------------|
|-h2-0-h2-h5-h2-0-h2-|-222222222222222222-|
|-h2-0-h2-h5-h2-0-h2-|-222222222222222222-|
                       ..................  .p.m.

Chorus:
|--------------------------------------|----------|
|--------------------------------------|----------|
|--------------------------------------|----------|
|--------------------------------------|-0~~~3~~~-|
|-h2-0-h2--2-0-h2-h5-h2-0-h2~--2-0-h2~-|-0~~~3~~~-|
|-h2-0-h2--2-0-h2-h5-h2-0-h2~--2-0-h2~-|-0~~~3~~~-|

|--------------------------------------|----------|
|--------------------------------------|----------|
|--------------------------------------|----------|
|--------------------------------------|-3~~~0~~~-|
|-h2-0-h2--2-0-h2-h5-h2-0-h2~--2-0-h2~-|-3~~~0~~~-|
|-h2-0-h2--2-0-h2-h5-h2-0-h2~--2-0-h2~-|-3~~~0~~~-|

Bridge3:
|--------------------------------------|
|--------------------------------------|
|--------------------------------------|
|--------------------------------------|
|-h2-0-h2--2-0-h2-h5-h2-0-h2~--2-0-h2~-|
|-h2-0-h2--2-0-h2-h5-h2-0-h2~--2-0-h2~-|

Chorus:
|--------------------------------------|----------|
|--------------------------------------|----------|
|--------------------------------------|----------|
|--------------------------------------|-0~~~3~~~-|
|-h2-0-h2--2-0-h2-h5-h2-0-h2~--2-0-h2~-|-0~~~3~~~-|
|-h2-0-h2--2-0-h2-h5-h2-0-h2~--2-0-h2~-|-0~~~3~~~-|

|--------------------------------------|----------|
|--------------------------------------|----------|
|--------------------------------------|----------|
|--------------------------------------|-3~~~0~~~-|
|-h2-0-h2--2-0-h2-h5-h2-0-h2~--2-0-h2~-|-3~~~0~~~-|
|-h2-0-h2--2-0-h2-h5-h2-0-h2~--2-0-h2~-|-3~~~0~~~-|
Comments