Rammstein - Mein Teil Chords & Tabs

 

Mein Teil Chords & Tabs

Rammstein Chords & Tabs

Version: 1 Type: Tab 0 ratings
1 star 2 stars 3 stars 4 stars 5 stars
comments

Mein Teil Tab

----------------------------------------------------------------------------			
Mein Teil- Rammstein                               
----------------------------------------------------------------------------
Tabbed by:Fabe
Email:

Tuning:I think you drop D tuning

Intro: Not sure how many times you repeat

e|------------------------------|                                          
B|------------------------------|
G|------------------------------|
D|-2-0-2--2-0-2-3--2-0-2--2-0-2-|
A|-2-0-2--2-0-2-3--2-0-2--2-0-2-|                                          
D|-2-0-2--2-0-2-3--2-0-2--2-0-2-|

This ends the intro
[ Tab from: http://www.guitartabs.cc/tabs/r/rammstein/mein_teil_tab.html ]
e|------------------------------|
B|------------------------------|
G|------------------------------|
D|-2-0-2--2-0-2--2-0-2--2-0-2---|                                          
A|-2-0-2--2-0-2--2-0-2--2-0-2---|
D|-2-0-2--2-0-2--2-0-2--2-0-2---|

Chorus: Let the last three notes ring
Play three times

e|-------------------------------|
B|-------------------------------|
G|-------------------------------|
D|-2-0-2--2-0-2-3--2-0--2--0--3--|
A|-2-0-2--2-0-2-3--2-0--2--0--3--|
D|-2-0-2--2-0-2-3--2-0--2--0--3--|

End Chorus by playing this

e|-------------------------------|
B|-------------------------------|
G|-------------------------------|
D|-2-0-2--2-0-2-3--2-0--2--3--0--|
A|-2-0-2--2-0-2-3--2-0--2--3--0--|
D|-2-0-2--2-0-2-3--2-0--2--3--0--|

That's all I know. There's more but I haven't firgured it out.
Comments