Rammstein - Mann Gegen Mann Chords & Tabs

 

Mann Gegen Mann Chords & Tabs

Rammstein Chords & Tabs

Version: 2 Type: Tab

Mann Gegen Mann Tab

   
-------------------------------------------------------------------------
			 Mann Gegen Mann - Rammstein
-------------------------------------------------------------------------
Tabbed by: Bee-Ay
Email: Leviathan_ben@hotmail.com

Tuning: C-G-C-F-A-D

Starting riff:
D|-----------------------------|
A|-----------------------------|
F|*---------------------------*|
C|*-0---8---0---5---0---3---5-*| x2
G|--0---8---0---5---0---3---5--|
C|--0---8---0---5---0---3---5--|


Clean verse riff: 
D|--------------------------| 
A|--------------------------| 
F|*------------------------*| 
C|*-0---8---0---5----3---5-*| 
G|--0---8---0---5----3---5--| 
C|--0---8---0---5----3---5--|




Chorus: 
D|----------------------------------------------------------------- 
A|----------------------------------------------------------------- 
F|*---------------------------------------------------------------- 
C|*-0----8----0----5----0--3----5----0----8----0----5----0--3---5-- 
G|--0----8----0----5----0--3----5----0----8----0----5----0--3---5-- 
C|--0----8----0----5----0--3----5----0----8----0----5----0--3---5-- 

[ Tab from: http://www.guitartabs.cc/tabs/r/rammstein/mann_gegen_mann_tab_ver_2.html ]
D|-----------------------------------------------------------------| 
A|-----------------------------------------------------------------| 
F|----------------------------------------------------------------*| 
C|--0-----8-----0--3/5----0-3---5---0-----8-----0-----3-----10----*| 
G|--0-----8-----0--3/5----0-3---5---0-----8-----0-----3-----10-----| 
C|--0-----8-----0--3/5----0-3---5---0-----8-----0-----3-----10-----|


Bridge:
D|---------------------------------------------------|
A|---------------------------------------------------|
F|---------------------------------------------------|
C|10h12-12-12-12-12---10h12-12-12-12-12---10h12-12-12|   x2
G|10h12-12-12-12-12---10h12-12-12-12-12---10h12-12-12|
C|10h12-12-12-12-12---10h12-12-12-12-12---10h12-12-12|


D|------------------------------------------------------|
A|------------------------------------------------------|
F|------------------------------------------------------|
C|10p8-8-8-8-8--10p8-8-8-8-8--10p8-8-8--10p8-8-8-8-8----|
G|10p8-8-8-8-8--10p8-8-8-8-8--10p8-8-8--10p8-8-8-8-8----|
C|10p8-8-8-8-8--10p8-8-8-8-8--10p8-8-8--10p8-8-8-8-8----|
Well, just repeat as needed....


Interlude: Clean guitar with effect.
D|------1-------1-------0-------0----|
A|----3---3---3---3---3---3---3---3--|
F|*-2-------2-------0-------0-------*|
C|*---------------------------------*| x6  
G|-----------------------------------|
C|-----------------------------------|


D|-----------------------------------|
A|-----------------------------------|
F|*---------------------------------*|
C|*---------------------------------*| x4 
G|--0-0-0-8-8-8-0-0-0-5-5-5-3-3-5-5--|
C|--0-0-0-8-8-8-0-0-0-5-5-5-3-3-5-5--|
    ...............................
             |
          Mute all

H: Hammer-on
P: Pull-Off

Thats all. Nice song. Enjoy.