Rammstein - Los Chords & Tabs

 

Los Chords & Tabs

Rammstein Chords & Tabs

Version: 8 Type: Tab 0 ratings
1 star 2 stars 3 stars 4 stars 5 stars
comments

Los Tab

   
-------------------------------------------------------------------------------
			     SONG NAME (LOS)- Band Name(RAMMSTEIN)
-------------------------------------------------------------------------------
Tabbed by:vladimir a reyes
Email: alexR0725@yahoo.com
       alexR0725@hotmail.com

Tuning: C.G.C.F.A.D
    C   C#   D#
d|---------------------------------------------------------------------------|
a|---------------------------------------------------------------------------|
f|---------------------------------------------------------------------------|
c|--0-0--1-0-3--0-0----------------------------------------------------------|
g|--0-0--1-0-3--0-0----------------------------------------------------------|
c|--0-0--1-0-3--0-0----------------------------------------------------------|
         p   p
[ Tab from: http://www.guitartabs.cc/tabs/r/rammstein/los_tab_ver_8.html ]
    C    C#  D#
d|---------------------------------------------------------------------------|
a|---------------------------------------------------------------------------|
f|---------------------------------------------------------------------------|
c|--0-0--1-0-3--0-0----------------------------------------------------------|
g|--0-0--1-0-3--0-0----------------------------------------------------------|
c|--0-0--1-0-3--0-0----------------------------------------------------------|
         p   p

    C    C#  D#
d|---------------------------------------------------------------------------|
a|---------------------------------------------------------------------------|
f|---------------------------------------------------------------------------|
c|--0-0--1-0-3-/-5--5-5-------------------------------------------------------|
g|--0-0--1-0-3-/-5--5-5-------------------------------------------------------|
c|--0-0--1-0-3-/-5--5-5-------------------------------------------------------|
         p   p

     thi is how i play the (solo)                    the 2nd guitar play this
d|----------------------------------------------------l-----------------------|
a|----7-5------------------7-5------------------------l--13b(15)-13--13-------|
f|--0-----3-0-0-0-0--0-1-0-----3-0-0-0-0--0-1-0-------l------------14-14------|
c|----------------------------------------------------l-----------------------|
g|----------------------------------------------------l-----------------------|
c|----------------------------------------------------l-----------------------|

                                   3 3 3
                         !it's all i have for you,today! 
l /  slide up          
l p  pull-off          
l p.m palm mute               05-06-05
===============================================================================
Comments