Rammstein - Los Chords & Tabs

 

Los Chords & Tabs

Rammstein Chords & Tabs

Version: 3 Type: Tab 0 ratings
1 star 2 stars 3 stars 4 stars 5 stars
comments

Los Tab

--------------------------------------------------------|all over the song
--------------------------------------------------------|
--------------------------------------------------------|
2--3-5-2--3-5-2--3-5-2--3-5-777-------------------------|
2--3-5-2--3-5-2--3-5-2--3-5-777-------------------------|
0xx1x3x0xx1x3x0xx1x3x0xx1x3x777-------------------------|

[ Tab from: http://www.guitartabs.cc/tabs/r/rammstein/los_tab_ver_3.html ]
Solo,im not sure about it,it sounds right on my electric guitar

-3-111------------------------------------|
------1-1-1444----------------------------|
0----3 3----------------------------------|
------------------------------------------|
------------------------------------------|
------------------------------------------|

this is my first tab so its problaly wrong,but i hope its right!!
Comments