Rammstein - Links 2 3 4 Chords & Tabs

 

Links 2 3 4 Chords & Tabs

Rammstein Chords & Tabs

Version: 3 Type: Tab 0 ratings
1 star 2 stars 3 stars 4 stars 5 stars
comments

Links 2 3 4 Tab

   
LINKS 2 3 4
                            As recorded by Rammstein
                          (From the 2001 Album MUTTER)

Music by Rammstein


E A D G B E

  Rhy.Fig.1

    E E E E E E E E   E E E S S E E E E
||------------------|--------------------||----|
||o-----------------|-------------------o||----|
||------9-------9---|-----9--------------||----|
||------9-------9---|-----9-----5-7---8--||----|
||o-----7-------7---|-----7-----5-7---8-o||----|
||--0-0---0-0-0---0-|-0-0---0-0-3-5-0-6--||----|
   PM..'  .....'  .......'  ...'    .'

 Rhy.Fig.2
    W     W      W      +H   S S S S E E
||------|------|------|-------------------||----|
||o-----|------|------|------------------o||----|
||------|------|------|-------------------||----|
||--2---|-5----|-7----|-(7)--7-7-7-7-8-8--||----|
||o-2---|-5----|-7----|-(7)--7-7-7-7-8-8-o||----|
||--0---|-3----|-5----|-(5)--5-5-5-5-6-6--||----|


    w/Rhy.Fig.1                                                             ~
    S S S S  S S  S S  S S S S S S S S    S S  S S  S S S S S S S S Q
||-------------------------------------|-------------------
||o-7-0-8-0-10-0-12-0-10-0-8-0-7-0-8-0-|-10-0-12-0-10-0-8-0-7-0-8-0---|----|
||-------------------------------------|----------------9-|
||-------------------------------------|-------------------
||o------------------------------------|-------------------
||-------------------------------------|-------------------

[ Tab from: http://www.guitartabs.cc/tabs/r/rammstein/links_2_3_4_tab_ver_3.html ]
                                                                   ~~
  S S S S  S S  S S  S S S S S S S S    S S  S S  S S S S S S S S  Q
|------------------------------------|---------------------
|-7-0-8-0-10-0-12-0-10-0-8-0-7-0-8-0-|-10-0-12-0-10-0-8-0-7-0-8-0-12--o||----|
|------------------------------------|---------------------
|------------------------------------|---------------------
|------------------------------------|-------------------o|
|------------------------------------|---------------------


Duration Legend
---------------
W - whole; H - half; Q - quarter; E - 8th; S - 16th; T - 32nd; X - 64th; a - acciaccatura
+ - note tied to previous; . - note dotted; .. - note double dotted
Uncapitalized letters represent notes that are staccato (1/2 duration)
Irregular groupings are notated above the duration line
Duration letters will always appear directly above the note/fret number it represents the
duration for.  Duration letters with no fret number below them represent rests.  Multi-
bar rests are notated in the form Wxn, where n is the number of bars to rest for.  Low
melody durations appear below the staff

Tablature Legend
----------------
 h   - hammer-on
 p   - pull-off
 b   - bend
 pb  - pre-bend
 r   - bend release (if no number after the r, then release immediately)
 /\  - slide into or out of (from/to "nowhere")
 s   - legato slide
 S   - shift slide
  - natural harmonic
[n]  - artificial harmonic
n(n) - tapped harmonic
 ~   - vibrato
 tr  - trill
 T   - tap
 TP  - trem. picking
 PM  - palm muting
\n/  - tremolo bar dip; n = amount to dip
 \n  - tremolo bar down
 n/  - tremolo bar up
/n\  - tremolo bar inverted dip
 =   - hold bend; also acts as connecting device for hammers/pulls
 <>  - volume swell (louder/softer)
 x   - on rhythm slash represents muted slash
 o   - on rhythm slash represents single note slash

Misc Legend
-----------
 |  - bar
||  - double bar
||o - repeat start
o|| - repeat end
*|  - double bar (ending)
 :  - bar (freetime)
 $  - Segno
 &  - Coda
Tempo markers -  = BPM(8/16=s8/s16),
where s8 = swing 8ths, s16 = swing 16ths
Comments