Rammstein - Laichzeit Chords & Tabs

 

Laichzeit Chords & Tabs

Rammstein Chords & Tabs

Version: 3 Type: Tab

Laichzeit Tab

Band:		Rammstein
Album		Herzelied
Song:		Laichzeit
Tabbed		Slashdotcom//

Two Git Sticks (Through out the hole song one Git plays below and the other plays
the same but only on the low E string)

Example Git 1	Git 2
        444
        222	222
Down Tune In the C Octave
A good song to play along to, one of the best on Herzelied.

.         = palm mute
Rammstein = Sick

Riff
|--------------|   |--------------|
|--------------|   |--------------|
|--------------|7X |--------------|1X
|--------------|   |--------------|
|-444-444-3475-|   |-444-444-3475-|
|-222-222-1253-|   |-222-222-1253-|
| ... ... ....       ... ... .    |
|--------------|   |---------------|
|--------------|   |---------------|
|--------------|7X |---------------|1X
|--------------|   |---------------|
|-444-444-3475-|   |-444-444-34754-|
|-222-222-1253-|   |-222-222-12532-|
  ... ... ....       ... ... .

Riff
|--------------|   |---------------|
|--------------|   |---------------|
|--------------|7X |---------------|1X
|--------------|   |---------------|
|-444-444-3475-|   |-444-444-34754-|
|-222-222-1253-|   |-222-222-12532-|
  ... ... ....       ... ... .

Riff
|--------------|   |--------------|
|--------------|   |--------------|
|--------------|7X |--------------|1X
|--------------|   |--------------|
|-444-444-3475-|   |-444-444-3475-|
|-222-222-1253-|   |-222-222-1253-|
| ... ... ....       ... ... .    |
|--------------|   |--------------|
|--------------|   |--------------|
|--------------|7X |--------------|1X
|--------------|   |--------------|
|-444-444-3475-|   |-444-444-3475-|
|-222-222-1253-|   |-222-222-1253-|
  ... ... ....       ... ... .
[ Tab from: http://www.guitartabs.cc/tabs/r/rammstein/laichzeit_tab_ver_3.html ]
Chorus
|------------------|   |-----------|
|------------------|   |-----------|
|------------------|3X |-----------|1X
|-6-66-6-6--6-10-7-|   |-6-666-5-4-|
|-6-66-6-6--6-10-7-|   |-6-666-5-4-|
|-4-44-4-4--4-8--5-|   |-4-444-3-2-|
|                                  |
|------------------|   |-----------------|
|------------------|   |-----------------|
|------------------|3X |-----------------|1X
|-6-66-6-6--6-10-7-|   |-----------------|
|-6-66-6-6--6-10-7-|   |----------7777-4-|
|-4-44-4-4--4-8--5-|   |-44444444-5555-2-|
                         ........ .... .
Riff
|--------------|   |--------------|
|--------------|   |--------------|
|--------------|7X |--------------|1X
|--------------|   |--------------|
|-444-444-3475-|   |-444-444-3475-|
|-222-222-1253-|   |-222-222-1253-|
| ... ... ....       ... ... .    |
|--------------|   |--------------|
|--------------|   |--------------|
|--------------|7X |--------------|1X
|--------------|   |--------------|
|-444-444-3475-|   |-444-444-3475-|
|-222-222-1253-|   |-222-222-1253-|
| ... ... ....       ... ... .    |
|--------------|   |--------------|
|--------------|   |--------------|
|--------------|7X |--------------|1X
|--------------|   |--------------|
|-444-444-3475-|   |-444-444-3475-|
|-222-222-1253-|   |-222-222-1253-|
  ... ... ....       ... ... .

Chorus
|------------------|   |-----------|
|------------------|   |-----------|
|------------------|3X |-----------|1X
|-6-66-6-6--6-10-7-|   |-6-666-5-4-|
|-6-66-6-6--6-10-7-|   |-6-666-5-4-|
|-4-44-4-4--4-8--5-|   |-4-444-3-2-|
|                                  |
|------------------|   |-----------------|
|------------------|   |-----------------|
|------------------|3X |-----------------|1X
|-6-66-6-6--6-10-7-|   |-----------------|
|-6-66-6-6--6-10-7-|   |----------7777-4-|
|-4-44-4-4--4-8--5-|   |-44444444-5555-2-|
                         ........ .... .
End Chorus
|--------------------------------------------------------------|
|--------------------------------------------------------------|
|--------------------------------------------------------------|4X
|-----------------------------3-33-3-3--3-7-4-3-33-3-3--3-7-4-|
|-444-444-3475--444-444-3475--3-33-3-3--3-7-4-3-33-3-3--3-7-4-|
|-222-222-1253--222-222-1253--1-11-1-1--1-5-2--1-11-1-1--1-5-2-|
  ... ... ....  ... ... ....

|---------------------------------------------|
|---------------------------------------------|
|---------------------------------------------|
|---------------------------------------------|
|-444-444--2--2--444-444--2-2--444-444224-|
|-222-222--0-0--222-222--0--0--222-222002-|
  ... ...  .  .  ... ...  .  .  ... ... . . .