Rammstein - Klavier Chords & Tabs

 

Klavier Chords & Tabs

Rammstein Chords & Tabs

Version: 3 Type: Tab 0 ratings
1 star 2 stars 3 stars 4 stars 5 stars
comments

Klavier Tab

   
-------------------------------------------------------------------------------
			Klavier - Rammstein
-------------------------------------------------------------------------------
Tabbed by:Eduardo Lan
Email:eduardolan_12hotmail.com

Intro
e|-----5------------------------5------------------------------|
B|-----------8-----6-----5------------8-8-----6-6-----5--------|
G|---5-----5-----5-----5------5-----5-------5-------5----------|
D|-7-----7-----7-----7------7-----7-------7-------7------------|
A|-------------------------------------------------------------|
E|-------------------------------------------------------------|

e|--------------------------------|
B|-----8-----6--------------------|
G|-----------------9-----9--------|
D|---7-----7-----7-----7----------|
A|-8-----8-----8-----8------------|
E|--------------------------------|x2
Chorus
the chorus is fast
e|-----------------------------------------------------------------------------|
B|-----------------------------------------------------------------------------|
G|-----------------------------------------------------------------------------|
D|-6-6-6-6-6-6-8-8-8-8-8-8-6-6-5-5-5-5-5-5-5-5-5-5-5-5-6-6-6-6-6-6-8-8-8-8-8-8-|
A|-6-6-6-6-6-6-8-8-8-8-8-8-6-6-5-5-5-5-5-5-5-5-5-5-5-5-6-6-6-6-6-6-8-8-8-8-8-8-|
E|-6-6-6-6-6-6-8-8-8-8-8-8-6-6-5-5-5-5-5-5-5-5-5-5-5-5-6-6-6-6-6-6-8-8-8-8-8-8-|
   
e|-----------------------------------------------------------------------------|
B|-----------------------------------------------------------------------------|
G|-----------------------------------------------------------------------------|
D|-6-6-5-5-5-5-5-5-10-10-10-10-5-5-6-6-6-6-6-6-8-8-8-8-8-8-6-6-5-5-5-5-5-5-5-5-|
A|-6-6-5-5-5-5-5-5-10-10-10-10-5-5-6-6-6-6-6-6-8-8-8-8-8-8-6-6-5-5-5-5-5-5-5-5-|
E|-6-6-5-5-5-5-5-5-10-10-10-10-5-5-6-6-6-6-6-6-8-8-8-8-8-8-6-6-5-5-5-5-5-5-5-5-|
[ Tab from: http://www.guitartabs.cc/tabs/r/rammstein/klavier_tab_ver_3.html ]
e|-------------------------------------------------|
B|-------------------------------------------------|
G|-------------------------------------------------|
D|-3-3-3-3-3-3-5-5-5-5-6-6-6-6-6-6-5-5-3-3-5-5-----|
A|-3-3-3-3-3-3-5-5-5-5-6-6-6-6-6-6-5-5-3-3-5-5-----|
E|-3-3-3-3-3-3-5-5-5-5-6-6-6-6-6-6-5-5-3-3-5-5-----|

heavy distorsion
e|-x--x--x--x--x--x--x--x--x--x--x--x--x--x--x--x--x--x--x--x-x-x-x-x--x--x--x-|
B|-12-12-12-12-12-12-12-12-12-12-12-12-10-10-10-10-10-10-10-5-5-5-5-12-12-12-12|
G|-12-12-12-12-12-12-12-12-12-12-12-12-10-10-10-10-10-10-10-5-5-5-5-12-12-12-12|
D|-----------------------------------------------------------------------------|
A|-----------------------------------------------------------------------------|
E|-----------------------------------------------------------------------------|

e|-x--x--x--x--x--x--x--x--x--x--x--x--x--x--x--x--x--x--x--x--x--x--x--x-x-x--|
B|-10-10-10-10-10-10-12-12-12-12-12-13-13-13-13-13-13-10-10-10-10-10-10-5-5-5--|
G|-10-10-10-10-10-10-12-12-12-12-12-13-13-13-13-13-13-10-10-10-10-10-10-5-5-5--|
D|-----------------------------------------------------------------------------|
A|-----------------------------------------------------------------------------|
E|-----------------------------------------------------------------------------|x4
The End
e|-----5--------------------------|
B|-----------8-----6-----5--------|
G|---5-----5-----5-----5----------|
D|-7-----7-----7-----7------------|
A|--------------------------------|
E|--------------------------------|x2

e|--------------------------------|
B|-----8-----6--------------------|
G|-----------------9-----9--------|
D|---7-----7-----7-----7----------|
A|-8-----8-----8-----8------------|
E|--------------------------------|

e|--------------------------------|
B|--------------------------------|
G|------12------11----------------|
D|----9-------9----9--------------|
A|-10------10--------~10----------|
E|--------------------------------|
| ~  vibrato
Comments