Rammstein - Klavier Chords & Tabs

 

Klavier Chords & Tabs

Rammstein Chords & Tabs

Version: 2 Type: Tab 0 ratings
1 star 2 stars 3 stars 4 stars 5 stars
comments

Klavier Tab

   
Author         : Rammstein
Song           : "Klavier"
Album          : Sehnsucht
Transcribed By : Luis Angel Loranca Plascencia
Email          : Deimo_666@hotmail.com

Tunning e B G D A e
----------------------------------------------------------------*
clean

e|-----------------------------------------------|
B|-----------------------------------------------|
G|-------12----12----10---------10----12----9----|
D|----10----10----10----10---10----10----10---10-|
A|--0----------------------0---------------------|
E|-----------------------------------------------|

 |--------------------------------------------|
 |-----------------10-10----------------------|
 |------12---------11-11------10---------9----|
 |---10----10---10---------10----10---10---10-|
 |-0----------0----------0----------0---------|
 |--------------------------------------------| x3

 |---------------------------------------------|
 |---------------------------------------------|
 |------12----12----10---------10----12----9\8-|
 |---10----10----10----10---10----10----10-----|
 |-8----------------------8--------------------|
 |---------------------------------------------|

 |----------------------------------|
 |----------------------------------|
 |-----12-------11-------9-------9--|
 |---9----9---9----9---9---9---9----|
 |-7--------7--------7-------7------|
 |----------------------------------|

----------------------------------------------------------------*
heavy distorsion

I think every note is played 16 times
e|----------------------------------------|
B|----------------------------------------|
G|-------7---------7---------7------------|
D|--8----7----8----7----5----7----5----7--|
A|--8----5----8----5----5----5----5----7--|
E|--6---------6---------6---------3----5--|

----------------------------------------------------------------*
clean

e|-----------------------------------------------|
B|-----------------------------------------------|
G|-------12----12----10---------10----12----9----|
D|----10----10----10----10---10----10----10---10-|      x2
A|--0----------------------0---------------------|
E|-----------------------------------------------|

----------------------------------------------------------------*
clean
[ Tab from: http://www.guitartabs.cc/tabs/r/rammstein/klavier_tab_ver_2.html ]
e|-----------------------------------------------|
B|-----------------------------------------------|
G|-------12----12----10---------10----12----9----|
D|----10----10----10----10---10----10----10---10-|
A|--0----------------------0---------------------|
E|-----------------------------------------------|
                              
 |--------------------------------------------|         
 |-----------------10-10----------------------|
 |------12---------11-11------10---------9----|
 |---10----10---10---------10----10---10---10-|
 |-0----------0----------0----------0---------|
 |--------------------------------------------|
                                                         x2
 |---------------------------------------------|
 |---------------------------------------------|
 |------12----12----10---------10----12----9\8-|
 |---10----10----10----10---10----10----10-----|
 |-8----------------------8--------------------|
 |---------------------------------------------|
 
 |----------------------------------|
 |----------------------------------|
 |-----12-------11-------9-------9--|
 |---9----9---9----9---9---9---9----|
 |-7--------7--------7-------7------|
 |----------------------------------|

----------------------------------------------------------------*
heavy distorsion

e|----------------------------------------|
B|----------------------------------------|
G|-------7---------7---------7----5----3--|
D|--8----7----8----7----5----7----5----3--|             x2
A|--8----5----8----5----5----5----7----5--|
E|--6---------6---------6-----------------|

----------------------------------------------------------------*
heavy distorsion

e|----------------------------------------------------|
B|----------------------------------------------------|
G|-----5----7---------5----7------7--9--10----7-------|
D|--3--5----7------3--5----7------7--9--10----7----7--|  x4
A|--3--7----5------3--7----5------5--7---8----5----7--|
E|--5--------------5-------------------------------5--|

----------------------------------------------------------------*
heavy distorsion

e|----------------------------------------|
B|----------------------------------------|
G|-------7---------7---------7----5----3--|
D|--8----7----8----7----5----7----5----3--|             x2
A|--8----5----8----5----5----5----7----5--|
E|--6---------6---------6-----------------|

----------------------------------------------------------------*
clean

e|-----------------------------------------------|
B|-----------------------------------------------|
G|-------12----12----10---------10----12----9----|
D|----10----10----10----10---10----10----10---10-|
A|--0----------------------0---------------------|
E|-----------------------------------------------|

 |--------------------------------------------|
 |-----------------10-10----------------------|
 |------12---------11-11------10---------9----|
 |---10----10---10---------10----10---10---10-|
 |-0----------0----------0----------0---------|
 |--------------------------------------------|

 |---------------------------------------------|
 |---------------------------------------------|
 |------12----12----10---------10----12----9\8-|
 |---10----10----10----10---10----10----10-----|
 |-8----------------------8--------------------|
 |---------------------------------------------|

 |----------------------------------|
 |----------------------------------|
 |-----12-------11------------------|
 |---9----9---9----9----------------|
 |-7--------7--------7--------------|
 |----------------------------------|

---------------------------------------------------------------- End
Comments