Rammstein - Klavier Chords & Tabs

 

Klavier Chords & Tabs

Rammstein Chords & Tabs

Version: 1 Type: Tab 0 ratings
1 star 2 stars 3 stars 4 stars 5 stars
comments

Klavier Tab

   
Song: Klavier
Band: Rammstein
Translated by: Stepoop


Tuning (d,a,g,d,a,E)

Intro:Drums

Verse:
Part I 00:08
||---------------------------------------------------||
||--------12----12-----------------------------------||                      
||*--------------------12----------10----12----9-----||
||*----10----10----10-----10----10----10----10---10--||
||---0------------------------0----------------------||
||---------------------------------------------------||
Part II 00:12
||----------------------------------------------||
||--------12------------10---------8------------||
||-------------------12---------10--------9-----||
||-----10----10---10---------10--------10---10--||
||---0----------0----------0---------0----------||
||----------------------------------------------||
Part III 00:17
||------------------------------------------------||
||------------------------------------------------||
||--------12----12----10---------9----10----9-----||
||-----10----10----10----10---10---10----10---10--||
||---8----------------------8---------------------||
||------------------------------------------------||
Part IV 00:20
||---------------------------------------||\
||---------------------------------------|| \
||-------12-------11-------9-------9-----|| |
||-----9----9---9----9---9---9---9---9---|| | Repeat Intro 3 Times
||---7--------7--------7-------7---------|| /
||---------------------------------------||/
[ Tab from: http://www.guitartabs.cc/tabs/r/rammstein/klavier_tab.html ]
Chorus 00:57
||-------------------------------------------------------------------------||
||-------------------------------------------------------------------------||
||-------------------------------------------------------------------------||
||---8------------12------------8------------12------------8------------12-||
||---8------------12------------8------------12------------8------------12-||
||---8------------12------------8------------12------------8------------12-||
    Trem Pick All (Pick as fast as you can, except for end)
||--------------------------||
||--------------------------||
||--------------------------||
||---13------------8-7\5-7--||
||---13------------8-7\5-7--||
||---13------------8-7\5-7--||

Verse: 01:14 Part I - 3 Times, than the rest of the Verse 2 times
Chorus: 01:55 Repeat 2 Times

Interlude/Bridge (Not sure about it, but it sounds ok...I Hope)
Guitar I 02:26
||---------------------------------------------------||
||---------------------------------------------------||
||---9---------------7---------------9---------------||
||---9---------------7---------------9---------------||
||---7---------------5---------------7---------------||
||---------------------------------------------------||
         Make the 9th fret right here (below) stand out
||---------------------------------------------------||
||---------------------------------------------------||
||---7---9---10------7---------------9---------------||
||---7---9---10------7---------------7---------------||
||---5---7---8-------5---------------0---------------||
||---------------------------------------------------||

Chorus:03:32 Repeat 2 times 
Outro:04:04 Same as Verse 

If there is any Questions or Comments post them on the site or
e-mail me at MoofinMunky@aol.com.....PLEASE PLEASE RATE MY TAB!
Its my first one
Comments