Rammstein - Keine Lust Chords & Tabs

 

Keine Lust Chords & Tabs

Rammstein Chords & Tabs

Version: 3 Type: Tab 0 ratings
1 star 2 stars 3 stars 4 stars 5 stars
comments

Keine Lust Tab

-------------------------------------------------------------------------------
			 Keine Lust - Rammstein
-------------------------------------------------------------------------------
Tabbed by:Eduardo Lan
Email:eduardolan_12@hotmail.com

intro
e|-------------------------------------------|
B|-------------------------------------------|
G|-------------------------------------------|
D|-------------------------------------------|
A|--7-10-5\7-10\12/10--7-10-5\7-10\12/10-----|
E|-------------------------------------------|

e|----------------------------------------------------------------|
B|----------------------------------------------------------------|
G|-------------------------------------------------------8/5------|
D|-0-0-0-0-0-0-0-0-0-0-0-0-0-0-0-0-0-0-0-0-0-0-0-0-0-0-0-x/x------|
A|-0-0-0-0-0-0-5-0-0-0-0-0-0-5-0-0-0-0-0-0-5-0-0-0-0-0-0-6/3------|
E|-0-0-0-0-0-0---0-0-0-0-0-0---0-0-0-0-0-0---0-0-0-0-0-0----------|x2
   PM.........   PM.........   PM.........   PM.........  
[ Tab from: http://www.guitartabs.cc/tabs/r/rammstein/keine_lust_tab_ver_3.html ]
e|----------------------------------------------------------------|
B|----------------------------------------------------------------|
G|----------------------------------------------------------------|
D|-0-0-0-0-0-0---0-0-0-0-0-0---0-0-0-0-0-0---0-0-0-0-0-0----------|
A|-0-0-0-0-0-0---0-0-0-0-0-0---0-0-0-0-0-0---0-0-0-0-0-0----------|
E|-0-0-0-0-0-0---0-0-0-0-0-0---0-0-0-0-0-0---0-0-0-0-0-0----------|x2
   PM.........   PM.........   PM.........   PM.........  
e|----------------------------------------------------------------|
B|----------------------------------------------------------------|
G|----------------------------------------------------------------|
D|-0-0-0-0------0-0-0-0-+5^5-0-0-0-0------0-0-0-0-+5^5------------|
A|-0-0-0-0-+5^5-0-0-0-0------0-0-0-0-+5^5-0-0-0-0-----------------|
E|-0-0-0-0------0-0-0-0------0-0-0-0------0-0-0-0-----------------|x2
   PM.....      PM.........  PM.....      PM..... 
chorus 
e|----------------------------------------------------------------|
B|----------------------------------------------------------------|
G|-6-6-6-6-8-8-8-8-11-11-11-11-9-9-9-9----------------------------|
D|-6-6-6-6-8-8-8-8-11-11-11-11-9-9-9-9----------------------------|
A|-4-4-4-4-6-6-6-6-9--9--9--9--7-7-7-7----------------------------|
E|----------------------------------------------------------------|x2

e|----------------------------------------------------------------|
B|----------------------------------------------------------------|
G|-6-6-6-6-8-8-8-8-11-11-11-11-14-14-14-14------------------------|
D|-6-6-6-6-8-8-8-8-11-11-11-11-14-14-14-14------------------------|
A|-4-4-4-4-6-6-6-6-9--9--9--9--12-12-12-12------------------------|
E|----------------------------------------------------------------|x2

e|----------------------|
B|----------------------|
G|-6-6-6\8-8/4-2-6-6----|
D|-6-6-6\8-8/4-2-6-6----|
A|-4-4-4\6-6/2-0-4-4----|
E|----------------------|x2

e|----------------------------------------------------------------|
B|----------------------------------------------------------------|
G|----------------------------------------------------------------|
D|-0-0-0-0-0-0---0-0-0-0-0-0---0-0-0-0-0-0---0-0-0-0-0-0----------|
A|-0-0-0-0-0-0---0-0-0-0-0-0---0-0-0-0-0-0---0-0-0-0-0-0----------|
E|-0-0-0-0-0-0---0-0-0-0-0-0---0-0-0-0-0-0---0-0-0-0-0-0----------|x5
   PM.........   PM.........   PM.........   PM......... 

e|----------------------|
B|----------------------|
G|-6-6-6\8-8/4-2-6-6----|
D|-6-6-6\8-8/4-2-6-6----|
A|-4-4-4\6-6/2-0-4-4----|
E|----------------------|x4 


| /  slide up
| \  slide down
| ^  Bend
| +  harmonic
| x  Mute note
Comments