Rammstein - Keine Lust Chords & Tabs

 

Keine Lust Chords & Tabs

Rammstein Chords & Tabs

Version: 4 Type: Bass Tab 0 ratings
1 star 2 stars 3 stars 4 stars 5 stars
comments

Keine Lust Bass Tab

   
Band: Rammstein
Song: Keine Lust
Bassist: Oliver Reidel
Tabbed by: Michael Feist

Tuning: Normal ; E A D G

Here's the tablature for the Keine Lust song. I'm pretty sure that 
it's correct because you can see Oliver playing in the video. I also
checked out one of their concerts. I was in the first row. Enjoy!


Intro (0:00 - 0:14):                             
G|--5----8----3-5----8-10-8---------|   
D|----------------------------------|           
A|----------------------------------|    x 2 
E|----------------------------------|          


Rythm 1 (0:14 - 0:28):
G|------------------|
D|------------------|
A|--3--3-3-3-3-3-3--|      -----|
E|------------------|           |
                                |-----    x 4
G|--------------------|         |
D|--------------------|    -----|
A|--3-3--3-3-3-3-3-3--| 
E|--------------------|


Chorus (0:28 - 0:50):
G|--------------------|
D|--------------------|
A|--3----3----3----3--|    x 4 
E|--------------------|

(0:50 - 1:09)
G|------------------------------------------------------|
D|------------------------------------------------------|
A|--3--3--3--3--6--6--6--6--8--8--8--8--11--11--11--11--|    x 2 
E|------------------------------------------------------|


Rythm 1(1:09 - 1:16):
G|------------------|
D|------------------|
A|--3--3-3-3-3-3-3--|      -----|
E|------------------|           |
                                |-----    x 2
G|--------------------|         |
D|--------------------|    -----|
A|--3-3--3-3-3-3-3-3--| 
E|--------------------|

[ Tab from: http://www.guitartabs.cc/tabs/r/rammstein/keine_lust_btab_ver_4.html ]
Chorus (1:16 - 1:37):
G|--------------------|
D|--------------------|
A|--3----3----3----3--|    x 4 
E|--------------------|

(1:37 - 2:05)
G|------------------------------------------------------|
D|------------------------------------------------------|
A|--3--3--3--3--6--6--6--6--8--8--8--8--11--11--11--11--|    x 4 
E|------------------------------------------------------|


Keyboard Solo (2:05 - 2:24):

This part's a bit tricky. You'll hafto find out for yourself when
to play these notes but they are correct!

G|---------------------------|
D|---------------------------|
A|--3----6----6----11----11--|    x 2
E|---------------------------|
 

Rythm 2(2:24 - 2:58):
G|--------------|
D|--------------|
A|--3--3-3-3-3--|    x 20   
E|--------------|           
 
Keyboard Solo (2:58 - 3:26)                          
G|---------------------------|
D|---------------------------|
A|--3----6----6----11----11--|    x 3
E|---------------------------|


Rythm 1(3:26 - End):
G|------------------|
D|------------------|
A|--3--3-3-3-3-3-3--|      -----|
E|------------------|           |
                                |-----    x 4
G|--------------------|         |
D|--------------------|    -----|
A|--3-3--3-3-3-3-3-3--| 
E|--------------------|


That's it! It's not very challenging but it is fun when playing with a band.
I advise you to learn everything seperatley first. Here's the line up of all
the parts:

Intro x 2
Rythm 1 x 4
Chorus x 4 and x 2
Rythm 1 x 2
Chorus x 4 and x 4
Keyboard Solo x 2
Rythm 2 x 20
Keyboard Solo x 3
Rythm 1 x 4

Have fun! Vote 5! :)
Comments