Rammstein - Ich Will Chords & Tabs

 

Ich Will Chords & Tabs

Rammstein Chords & Tabs

Version: 3 Type: Tab 0 ratings
1 star 2 stars 3 stars 4 stars 5 stars
comments

Ich Will Tab

Rammstein
Ich Will
It is a nice song. I like it very much. 



intro and verse:
distorted
e:----------------------------------------------------------------------|
B:----------------------------------------------------------------------|
G:----------------------------------------------------------------------|
D:--2-2-2-2-2----2-2-2-2-2-2-2-2----------7-7-7--5-5--2-2--------|
A:--2-2-2-2-2----2-2-2-2-2-2-2-2----------7-7-7--5-5--2-2--------|
E:--0-0-0-0-0----0-0-0-0-0-0-0-0----------5-5-5--3-3--0-0--------|


chorus
e:-----------------------------------------------------------|
B:-----------------------------------------------------------|
G:-----------------------------------------------------------|
D:-2---------10---7---9-------2--------10---12---9-------|
A:-2---------10---7---9-------2--------10---12---9-------|
E:-0----------8---5---7-------0---------8----10---7-------|
[ Tab from: http://www.guitartabs.cc/tabs/r/rammstein/ich_will_tab_ver_3.html ]
 verse
Clean Tone
e:------------------------------------------------------------------------|
B:-----------------------------------------------------------------------|
G:-----------------------------------------------------------------------|
D:-----2-----2-----2-----2-------10------10-------10-----10-9--------|
A:---2--2--2--2--2--2--2--2--10--10--10--10--10--10---10-9--------|
E:-0------0-----0-----0------8--------8--------8-----------8--7--------|

 e:-----------------------------------------------------------------|
B:-----------------------------------------------------------------|
G:-----------------------------------------------------------------|
D:---7-----7-----7-----7------9-----9------9-----9--------------|
A:--7-7--7--7--7--7--7--7--9--9--9--9--9--9--9--9-------------|
E:-5----5-----5-----5------7-----7-----7------7------------------


Rammstein Ich Will
tabbed by Oleg Zamyatin
e-mail:  JROZ@rambler.ru
  
Comments