Rammstein - Ich Will Chords & Tabs

 

Ich Will Chords & Tabs

Rammstein Chords & Tabs

Version: 2 Type: Tab 1 rating
1 star 2 stars 3 stars 4 stars 5 stars
comments

Ich Will Tab

Ich Will 
Rammstein
psychonuttz@hotmail.com



For the verses ..play this :

e--------------------------------   ----------------------
B--------------------------------   ----------------------
G---7-7-7-7-7---7-7-7-7-7-7-7-7--   --10-10-10-9-9-5-7----
D---5-5-5-5-5---5-5-5-5-5-5-5-5--   --10-10-10-9-9-5-7----
A---5-5-5-5-5---5-5-5-5-5-5-5-5--   ---8--8--8-7-7-3-5----
E--------------------------------   ----------------------



 For the chorus play this :

e---------------------------------------------------------
B---------------------------------------------------------
G---7-7-7-7--7--------------7-7-7-7--7--------------------
D---7-7-7-7--7--8--5-5-7-7--7-7-7-7--7--8--10-10-7-7------
A---5-5-5-5--5--6--3-5-7-7--5-5-5-5--5--6---8--8-5-5------
E---------------6--3-3-5-5--------------6---8--8-5-5------

this part is played 2 times every chorus :)

bridge :
[ Tab from: http://www.guitartabs.cc/tabs/r/rammstein/ich_will_tab_ver_2.html ]
e---------------------------------------------------------- - first -
B---------------------------------------------------------- - ----- -
G---------------------------------------------------------- - ----- -
D-------7-------7-------7-------7-------8-------8-------8-- - ----- -
A-----5---5---5---5---5---5---5---5---8---8---8---8---8---8 - -8-7- -
E---5-------5-------5-------5-------6-------6-------6------ - -6-5- -

- -second-- -
- --------- -
- --------- -
- --------- -
- ---8---7- -
- -6---5--- -

- ---------------------------------------------------------------------
- ---------------------------------------------------------------------
- ---------------------------------------------------------------------
- -----5-------5-------5-------5-------7-------7-------7-------7-------
- ---5---5---5---5---5---5---5---5---7---7---7---7---7---7---7---7-----
- -3-------3-------3-------3-------5-------5-------5-------5-------5---


I have no absolutely no idea what the lyrics are since I'm a simple guy from India who
hardly speaks German, but I love these guys no matter in what language they  
sing :)
Love ya guys
Sampath Rabanne, Jan 2004
Comments